a b c d e f g h i j k l m n o p q r s t u v w x y z 0-9

Intro De Vivir Sin Aire (españa)

Mana

			
e------0-0-0---------0------0-3------------------0----
B-0-1-3--1-1-1A3-0---1-1-1-3----0-0-0-0-0A1-------0---
G--------2-0---------2----------0-2---------2---0--0--
D--------2-2---------0----------0-0------------2----2-
A--------0-0---------0----------2-0-----------2-------
E--------0-3---------2----------3-2----------0--------

e-----------0-0--------------------x--------0-2-3-2-5?3-2-
B-0-0h1A3H0-1-1?1-1-1A3h0---1A0----x-1-1-1-3--------------
G-----------2-0------------2-------x----------------------
D-----------2-2------------0?------x----------------------
A-----------0-0------------0-------x----------------------
E-----------0-3------------2?------x----------------------

e--2-------------------0-----------------------------------
B-5-3-1-----0-0-0A1-----0----------0A1-------------------0-
G-------0-2-----------0--0----0-0h2------2-0?-2-0-------0--
D-------0-0----------2----2-----------------2----4-----4---
A-------2-0---------2-------------------------2-------2----
E-------3-2--------0---------------------2-----------0-----

e-12----------
B-----12------
G---------12--
D---------------
A---------------
E---------------

  Em        D           C       
e-----------0-------0--------------------
B-8---8---7--7----5--5--------3-------0--
G-9--9----7---7---5---5--0-2---2--0--0---
D-9-9-----7-------5-----------------0----
A-7-------5-------3----------------------
E------------------------0-2------3------

Arpegio
e------------------------------------------
B-----1-0----3-1h0--0---0--------0-5-3-1-0-
G----0----2-------2----0--2-0---0----------
D---2------0----------0--------0-----------
A--0---------------------------------------
E-------3-2---------3-----2-0--------------

e------------------------------------------
B--1--1-0----3-1h0---0---0--------0-5-3-1--
G----0----2--------2----0--2-0---0---------
D---2------0-----------0--------0----------
A--0---------------------------------------
E-------3-2----------3-----2-0-------------

e-------------------------------------------------
B--1--1-0----3-------3-3-3-3----3-------3-3-3-3-3-
G----0----2--2-2-0---0-0-0-0----0-------0-0-0-0-0-
D---2------0----0----4-4-4-4----4-4-----4-4-4-4-4-
A--0----------------2-----------------2-----------
E-------3-2--------0---------0-2---0--------------
e---------------------------------------0---------
B-----------1-0----3-1h0--0---0--------0--3-1-0-
G----------0----2-------2----0--2-0---0----------
D---------2------0----------0--------0-----------
A--------0---------------------------------------
E--0-2-3------3-2---------3-----2-0--------------

e--------------------
B--1--1-0----3-------
G----0----2--2-2-0---
D---2------0----0----
A--0-----------------
E-------3-2----------


e-----------0-3-2-0-------------------------12-----
B------------------3-1-0----------------------12---
G------------------------2-0--------------------12-
D--------0-------------------4-2-0-------------------
A-------2--------------------------3-2---------------
E-0-2-3--------------------------------3-2-0---------

e-------------------------------------------
B-8---8-8---8----------3------3----3--------
G-9--9--9---9--9-------0-0-0---0----2-------
D-9-9---10--10--10----0---0-----0----0------
A-7-----10--10------------------------------
E------------------0-3-------3----3---------

e-----------------------3--2--0------
B-----3--------3------3--3---3--3----
G----0---0----5--5-5---2-------2---2-
D---4---4----5----5--0---------------
A--2--------3------------------------
E-0----------------------------------

e------3--------3-------------------------
B-----3---3----3-3-3-----3------3----3----
G----0---0----5---5------0-0-0---0----2---
D---4--------5----------0---0-----0----0--
A-----------------------------------------
E-0------------------0-3-------3----2-----

e------3--------3-------3-2--0-------
B-----3---3----3-3-3--2--3-3--2------
G----0---0----5---5----3----2--3-----
D---4--------5-------0---------------
A------------------------------------
E-0---------------------------------- 

Inicio de la canción vivir sin aire
 
 A .Se toca la primera nota y la segunda se hace sonar por medio de un tap presionar el trasto de la guitarra y lograr un sonido sin necesidad de hacer un punteo y luego hacer sacarlo nuevamente y rapidamente para darle un efecto al sonido.

 h . Se toca la primera nota y la segunda se hace sonar por medio de un tap presionar el trasto de la guitarra y lograr un sonido sin necesidad de hacer un punteo la segunda nota.

Fuente: Tusacordes