a b c d e f g h i j k l m n o p q r s t u v w x y z 0-9

Huele A Tristeza

Mana

C
Em
Am
F
G
D
			
INTRO:
e|-3-0-----1-----3-5-3-0-----1-----2-5-7--8-0-- 
B|-5-1---------------5-1-----------------10-1-- 
G|-----0-2---2-4-4-5-----0-2---2-4-4-5-7------- 
D|--------------------------------------------- 
A|--------------------------------------------- 
B|---------------------------------------------


e|--------------------------------------------|
B|-----1-----3-5-----0------------3-5-3-------|
G|---------------------1----------5-----------|
D|-0-2---2-4-4-5---2-----2------4-------5-4---|
A|---------------3---------3--5-------------5-|
E|--------------------------------------------|

C                               Em  Am
Solo huele a tristeza, huele a soledad        
                F           C       G
En mis ojos perdidos, solo hay humedad.
C                              Em  Am
Siento un grande vacio, en mi corazon
                  F   D        G
Siento un escalofrio, de ansiedad.


CORO:
Em       F           C      Em      Am
Donde esta, la otra parte de mi corazon
F    G        C       Em         Am
Ay amor, donde andas, donde viviras
D               G    F  G
Donde, donde estas.

C                Am          F
Huele a tristeza, este corazon
                    G          C
Sabe a tu ausencia, sabe a dolor
                 Am         F   G
Huele a tristeza, este corazon,
          Am
Sabe a dolor.



C                                Em    Am
Necesito de alguien, alguien a quien amar
              F         C       G
Necesito dar todo, todo mi corazon.
C                          Em           Am
Te he estado buscando, cielo, tierra y mar,
                  F    D              G
Debajo de las piedras, y hasta en el sol.


CORO....

e|-3-0-----1-----3-5-3-0-----1-----2-5-7--8-0-- 
B|-5-1---------------5-1-----------------10-1-- 
G|-----0-2---2-4-4-5-----0-2---2-4-4-5-7------- 
D|--------------------------------------------- 
A|--------------------------------------------- 
B|---------------------------------------------


e|--------------------------------------------|
B|-----1-----3-5-----0------------3-5-3-------|
G|---------------------1----------5-----------|
D|-0-2---2-4-4-5---2-----2------4-------5-4---|
A|---------------3---------3--5-------------5-|
E|--------------------------------------------|

C  Em  Am  F  D  G



C     Am    Em    D        x2
Sabe, sabe, sabe, a dolor,  



Final:
C     Am    Em    D  


Les quedo debiendo el puente o el solo entre el primer coro y la segunda estrofa,,Dios kiera les ayude!!

Fuente: Tusacordes