a b c d e f g h i j k l m n o p q r s t u v w x y z 0-9

Huele A Tristeza

Mana

			
E -----3--0--------1--------3--5-------
B -----------------------0-------------
G -----------0--2-----2----------------
D -------------------------------------
A -------------------------------------
E --3----------------------------------


E --3--0--------1--------3--5--7-------
B --------------------0----------------
G --------0--2-----2-------------------
D -------------------------------------
A -------------------------------------
E -------------------------------------


E  --8--0--------1--------3--5----------
B  --------------------0----------------
G  --------0--2-----2-------------------
D  -------------------------------------
A  -------------------------------------
E  -------------------------------------


                                              C*
E  -----------0-----------------3/5--3--0--------
B  --------1-----1-----1-------------------3--1--
G  -----2-----------2--------4-------------------
D  ----------------------------------------------
A  ----------------------------------------------
E  --1--------------------3----------------------



*Se empieza a tocar los acordes desde el C

Fuente original ATAME [www.atame.org]
Colaborador original: Andrés Marenco Zúńiga [andres@atame.org]

Fuente: tusacordes.com