a b c d e f g h i j k l m n o p q r s t u v w x y z 0-9

Hechicera

Mana

			
NOTA. EL ligado lo escribo asi " * " y el slide va " /sl ".
              2 veces         varias veces 
E------5--5--5------|---------------------------------------|------------
B------5--5--5--7^--|---------------------------------------|------------
G-T----5--5--5--7^--|-2-x-2-x-4-5--2-x-2-x-2-x--4-5-4-------|------------
D-A-----------------|---------------------------------------|------------
A-B-----------------|---------------------------------------|------------
E-------------------|---------------------------------------|------------

 Hay q bonitos...       Es  una hechi ...

E-1-1-1---|---5-5-5--|-------------------------------------------------------------
B-3-3-3---|---6-6-6--|----------------------------------3--------------------------
G-2-2-2---|---5-5-5--|--2-x-2-x-4-5---2-x-2-x-4-5---2-x-2-x-4-5-5--4-5--5-4-5-4-2--
D---------|----------|-------------------------------------------------------------
A---------|----------|-------------------------------------------------------------
E---------|----------|-------------------------------------------------------------

1er. SOLO CLASICO  tocalo con los dedos , sin plumilla para que se oiga mejor

E------------------------------------------------------------8-8-------------------
B------------------8------------------------------------------------10 /sl-12---10-
G---------7-9-10-----10-9-7---9*10*9*7*9--/sl-9-9-9---9*/sl-7*/sl-9----------------
D-7-9-10---------------------------------------------------------------------------
A----------------------------------------------------------------------------------
E----------------------------------------------------------------------------------

    2o. SOLO CLASICO

E----------------------------------------------------------------------------------
B----------------------------------------------------------------------------------
G-------------------------------------------------------10/sl-12--10---10-9-9-/sl-7
D-9*10*9*7*9*10*9*7*9 en un solo movimiento--7-7-7-9-----------------------------
A----------------------------------------------------------------------------------
E----------------------------------------------------------------------------------

                                                                                         
mas lento  

E---------------------------------------8-8----------------------8/sl-10-----------
B--------------------------------------------------12-12------------------10-12-13-
G-7--7/sl-5---7/sl-9-7---/sl-9-9-9-----9-9-9--------9-9-9--------------------------
D----------------------------------------------------------------------------------
A----------------------------------------------------------------------------------
E----------------------------------------------------------------------------------


E-----10---------------------------------------------------------------------------
B-13-----12--13--10--12------10----------------------------------------------------
G-----------------------------12-----10--10*12--9~~~~------------------------------
D----------------------------------------------------------------------------------
A----------------------------------------------------------------------------------
E----------------------------------------------------------------------------------

Fuente original ATAME [www.atame.org]
Colaborador original: David A.Garcia. [D197@HOTMAIL.COM]

Fuente: tusacordes.com