a b c d e f g h i j k l m n o p q r s t u v w x y z 0-9

Eres Mi Religion

Mana

			
1.-Guitarra acústica Fher  

fher utiliza guitarra con capotraste 
Y utiliza acordes,como esta en capotraste 4 utiliza estos acordes
 
F#m   B    E   A   E7    F#
e.-5----7----4---5---4---6----------------
B.-7----7----5---5---5---7----------------
G.-6----4----4---6---7---6----------------
D.-7----4----6---7---6---8----------------
A.------6----7---7-------7----------------
E.------7----4---5-----------------------

Intro:
e.-4------4-------4---------4-4-4-4----------
B.-5------4-------5---------4-4-4-4----------
G.-4------4-------6---------4-4-4-4----------
D.-6------4-------6---------6-6-6-6----------
A.-7------6-------4---------6-6-6-6----------
E.-------------------------------------------

Estrofa:

F#m                   B                     E     A   E
Iba caminando por las calles empapadas en olvido
F#m                         B                     E      A  E
iba por los parques con fantasmas y con ángeles caídos
F#m                    B                  E             A      
iba sin luz , iba sin sol , iba sin un sentido , iba muriéndome
F#m                  B                E       A   E   
iba volando sobre el mar con las alas rotas .
F#m                           B                   E        A   E
Hay amor , apareciste en mi vida y me curaste las heridas 
F#m                                B                    E A E    
hay amor , eres mi luna , eres mi sol , eres mi pan de cada día.

F#m                B                E                 A              
Apareciste con tu luz , no nunca te vayas , no no te vayas no
F#m                     B            E       A   E 
eres la gloria de los dos , Hasta la muerte

pre-coro

B                                     C#m          B
En un mundo de ilusión , yo estaba desahuciado , estaba 
   F# 
abandonado
e.------------------------9-----7----6----
B.------------------------9-----7----7----
G.------------------------9-----8----6----
D.------------------------11----9----8----
A.------------------------11----9----9----
E.----------------------------------------
             A                    B
vivía sin sentido , pero llegaste tú .
e.-----------5-5-5-5-5------------7---------
B.-----------5-5-5-5-5------------7---------
G.-----------6-6-6-6-6------------8---------
D.-----------7-7-7-7-7------------9---------
A.-----------7-7-7-7-7------------9---------
E.-----------5-5-5-5-5------------7---------

Coro:
E        B          C#m        E7
Hay amor , tú eres mi religión
                          A      G#m   F#m
tu eres luz , tu eres mi sol 
                B                       
abre el corazón , abre el corazón .

INTRO

E  B C#m

F#m                    B                            E       A   E
Hace tanto tiempo corazón , viví en dolor y en el olvido
F#m                               B                             
hay amor ,eres mi bendición , mi religión eres mi sol que cura 
    E  A E
el frío 

F#m               B             E                  A           G#m  F#m
Apareciste con tu luz , noo no , no me abandones , no nunca mi amor
               B              E                       A     
gloria de los dos , tu  eres sol , tu eres mi todo , todo tu eres 

bendición

B                                     C#m          
En un mundo de ilusión , yo estaba desahuciado , estaba abandonado
             A                     B
vivía sin sentido , pero llegaste tú .

E     B                C#m       E7
Hay amor , tú eres mi religión
                          A    G#m   F#m
tu eres luz , tu eres mi sol 
                B                       
abre el corazón , abre el corazón .

E     B                C#m       E7
Hay amor , tú eres mi bendición
                          A   G#m   F#m
tu eres luz , tu eres mi sol 
                  B                       
abre el corazón , abre  abre el corazón .

E                      
Viviré siempre a tu lado                                   
e.------------4-4-4-4-4-------------
B.------------4-4-4-4-4-------------
G.------------4-4-4-4-4-------------
D.------------4-4-4-4-4-------------
A.------------6-6-6-6-6-------------
E.----------------------------------

        C#m   B
con tu luz  

E                     
moriré estando a tu lado
e.------------4-4-4-4-4-------------
B.------------4-4-4-4-4-------------
G.------------4-4-4-4-4-------------
D.------------4-4-4-4-4-------------
A.------------6-6-6-6-6-------------
E.----------------------------------

                   C#m    B
eres gloria y bendición

E           
eres tu mi bendición
e.------------4-4-4-4-4-------------
B.------------4-4-4-4-4-------------
G.------------4-4-4-4-4-------------
D.------------4-4-4-4-4-------------
A.------------6-6-6-6-6-------------
E.----------------------------------
 
             C#m     B
eres tu mi religión

E                                    C#m      B
eres tu mi eternidad  y hasta eres salvación
e.------------4-4-4-4-4-------------
B.------------4-4-4-4-4-------------
G.------------4-4-4-4-4-------------
D.------------4-4-4-4-4-------------
A.------------6-6-6-6-6-------------
E.----------------------------------

Outro: 
E                                    C#m
no tenia nada , y hoy te tengo con la gloria
e.-7-7---5-5-------4----------------
B.-7-7---5-5-------5----------------
G.-9-9---6-6-------6----------------
D.-9-9---7-7-------6----------------
A.-7-7---7-7-------4----------------
E.-7-7---5-5-------4---------------- 
                        B                             E    
con la gloria , con la gloria , amor amor amor  amor amor
e.-----------------------7-----------7-7---5-5-------
B.-----------------------7-----------7-7---5-5-------
G.-----------------------5-----------9-9---6-6-------
D.-----------------------5-----------9-9---7-7-------
A.-----------------------6-----------7-7---7-7-------
E.-----------------------7-----------7-7---5-5------- 

          C#m    B                         E
eres tu mi bendición , eres mi luz eres mi sol .
e.--------4------7-------------------------4---
B.--------5------7-------------------------5---
G.--------6------5-------------------------4---
D.--------6------5-------------------------6---
A.--------4------6-------------------------7---
E.--------4------7----------------------------- 

2.-Guitarra eléctrica Sergio 

Intro

e.-----------------------------
B.-----------------4-----------
G.---9----9----6------4--------
D.--9----9----6--6--6----------
A.-7----6----4-----------------
E.-----------------------------

Estrofa: por cada verso se repite este riff

e.----2-----2------------------------
B.---------5-------------------------
G.---2----4--------------------------
D.--4----------------9-9-7----9-9-7--
A.-------------------------0-0-------
E.----------------0-0----------------

Este riff lo hace cuando el cantante dice ?apareciste con tu luz?

e.-5-5-5-5-4-4-4-4-2-----------------------------
B.-5-5-5-5-5-5-5-5-5-5-5-5-5-4-4-4-4-4-4-5-5-5-5-
G.-------------------4-4-4-4-4-4-4-4-4-4-4-4-4-4-
D.-----------------------------------------------
A.-----------------------------------------------
E.-----------------------------------------------

e.-------------5-5-5-5-4-4-4-4-2---
B.-4-4-4-4-4-4-5-5-5-5-5-5-5-5-5---
G.-4-4-4-4-4-4---------------------
D.---------------------------------
A.---------------------------------
E.---------------------------------

e.-5-5-5-5-4-4-4-4-2-----------------------------
B.-5-5-5-5-5-5-5-5-5-5-5-5-5-4-4-4-4-4-4-5-5-5-5-
G.-------------------4-4-4-4-4-4-4-4-4-4-4-4-4-4-
D.-----------------------------------------------
A.-----------------------------------------------
E.-----------------------------------------------

e.-------------5-5-5-5-4-4-4-4-2---
B.-4-4-4-4-4-4-5-5-5-5-5-5-5-5-5---
G.-4-4-4-4-4-4---------------------
D.---------------------------------
A.---------------------------------
E.---------------------------------


Pre-coro ustedes sabran donde se deben tocar este riff deben escuchar la canción primero

e.---7-------9----7---7---5---7--7-7--------
B.------------------------------------------
G.-/8-----8/9?-6/8-4/6?4/6?6/8--9-9-8-------
D.------------------------------------------
A.------------------------------------------
E.------------------------------------------

Coro: 
e.----0-0-0---0-0-0----0-0--------
B.----------------------------------
G.---1-------1--------1-------------
D.--2-------1------------------------
A.-------------------4--------------
E.-----------------------------------

e.-5-5-5-5-5-4-2-----------------------
B.-5-5-5-5-5-4-2-----------------------
G.-6-6-6-6-6-4-2-----------------------
D.-7-7-7-7-7-6-4-----------------------
A.-7-7-7-7-7-6-4-----------------------
E.-5-5-5-5-5-4-2-----------------------

Intro nuevamente 

e.-----------------------------
B.-----------------4-----------
G.---9----9----6------4--------
D.--9----9----6--6--6----------
A.-7----6----4-----------------
E.-----------------------------


Estrofa: por cada verso se repite este riff nuevamente este riff

e.----2-----2------------------------
B.---------5-------------------------
G.---2----4--------------------------
D.--4----------------9-9-7----9-9-7--
A.-------------------------0-0-------
E.----------------0-0----------------

Este riff lo hace cuando el cantante dice ?apareciste con tu luz? nuevamente

e.-5-5-5-5-4-4-4-4-2-----------------------------
B.-5-5-5-5-5-5-5-5-5-5-5-5-5-4-4-4-4-4-4-5-5-5-5-
G.-------------------4-4-4-4-4-4-4-4-4-4-4-4-4-4-
D.-----------------------------------------------
A.-----------------------------------------------
E.-----------------------------------------------

e.-------------5-5-5-5-4-4-4-4-2---
B.-4-4-4-4-4-4-5-5-5-5-5-5-5-5-5---
G.-4-4-4-4-4-4---------------------
D.---------------------------------
A.---------------------------------
E.---------------------------------

e.-5-5-5-5-4-4-4-4-2-----------------------------
B.-5-5-5-5-5-5-5-5-5-5-5-5-5-4-4-4-4-4-4-5-5-5-5-
G.-------------------4-4-4-4-4-4-4-4-4-4-4-4-4-4-
D.-----------------------------------------------
A.-----------------------------------------------
E.-----------------------------------------------

e.-------------5-5-5-5-4-4-4-4-2---
B.-4-4-4-4-4-4-5-5-5-5-5-5-5-5-5---
G.-4-4-4-4-4-4---------------------
D.---------------------------------
A.---------------------------------
E.---------------------------------

Pre-coro ustedes sabran donde se deben tocar este riff deben escuchar la canción primero

e.---7-------9----7---7---5---7--7-7--------
B.------------------------------------------
G.-/8-----8/9?-6/8-4/6?4/6?6/8--9-9-8-------
D.------------------------------------------
A.------------------------------------------
E.------------------------------------------

Coro: se repite dos veces con una variante

e.----0-0-0---0-0-0----0-0-0---0-0---
B.--------------------------------0--
G.---1-------1--------1------1-------
D.--2-------1------------------------
A.-------------------4------2--------
E.-----------------------------------

e.-5-5-5-5-5-4-2-----------9--------------
B.-5-5-5-5-5-4-2--------------------------
G.-6-6-6-6-6-4-2----------9--11-9----9----
D.-7-7-7-7-7-6-4-----------------11-9-----
A.-7-7-7-7-7-6-4--------------------------
E.-5-5-5-5-5-4-2--------------------------

e.----0-0-0---0-0-0----0-0-0----2-4-2-0---
B.----------------------------------------
G.---1-------1--------1------1/2--4-2-1---
D.--2-------1-----------------------------
A.-------------------4--------------------
E.----------------------------------------

e.-5-5-5-5-5-4-2-----------------------
B.-5-5-5-5-5-4-2-----------------------
G.-6-6-6-6-6-4-2-----------------------
D.-7-7-7-7-7-6-4-----------------------
A.-7-7-7-7-7-6-4-----------------------
E.-5-5-5-5-5-4-2-----------------------


Intro nuevamente con variante con la voz ?viviré..?
e.-----------------------------
B.-----------------------------
G.---9----9----6------9-9-11-9-
D.--9----9----6----6/9---9-----
A.-7----6----4-----------------
E.-----------------------------

e.-------------------------------------
B.----------------------------9-9------
G.---9----9----6---9-9-9-11-11---11----
D.--9----9----6--9---------------------
A.-7----6----4-------------------------
E.-------------------------------------

?Eres tu??
e.-----------------------------
B.-----------------------------
G.---9----9----6------9-9-11-9-
D.--9----9----6----6/9---9-----
A.-7----6----4-----------------
E.-----------------------------
?eres tu mi??
e.-----------------------------
B.-----------------------------
G.---9----9----6------9-9-11-9-
D.--9----9----6----6/9---9-----
A.-7----6----4-----------------
E.-----------------------------

?No tenia nada??

e.-12-12-12-12-12-12-12-12-12-12-12-
B.-12-12-12-12-12-12-12-12-12-12-12-
G.----------------------------------
D.----------------------------------
A.---------------------------------- 
E.----------------------------------


e.-14-14-14-14-12-12-12-12-12-12-12-12-12-12-12-12-
B.-12-12-12-12-12-12-12-12-12-12-12-12-12-12-12-12-
G.-------------------------------------------------
D.-------------------------------------------------
A.-------------------------------------------------
E.-------------------------------------------------

e.-12-12-12-12-14-14-14-14-...
B.-12-12-12-12-12-12-12-12-...
G.-------------------------
D.-------------------------
A.-------------------------
E.-------------------------

Lo repite hasta el final de la canción

Fuente: Tusacordes