a b c d e f g h i j k l m n o p q r s t u v w x y z 0-9

En El Muelle De San Blas

Mana

			
                 EN EL MUELLE DE SAN BLAS
                    MANA VERSION CD
  HOLA:
Bueno esta version es la del cd de SUEÑOS LIQUIDOS es un  
Poco diferente a la version umplegged y las versiones en
concierto espero la verdad les guste y si tienen alguna duda. 
me escriben a mi correo jhessel_virgo_14@hotmail.com
Bueno vamos al grano echele Sergio Vallin.

INTRODUCCION Y ESTROFA 1:
                                                                                                            
  Em                A                 D                 G
E|---------7----------------5----------------5----------------3---2---|
B|-----8-------8--------5-------5--------5-------5--------3---------3-|
G|---9---9---9---9----6---6---6---5----7---7---7---7----4---4---4-----|
D|--------------------------------------------------------------------|
A|-7---------------------------------5--------------------------------|
E|------------------5---------------------------------3---------------|
 
Este arpegio nos va servir como intr. y base para la estrofa 1 
la parte del intr. donde FHER dice uh uh uh bueno esa
parte empieza cuando tocamos entre A y  D ok luego 
vamos al primer párrafo y tocamos el mismo arpegio .

Em A        D            G
      Uh uh uh uh uh uh uh 


 Letra:
Em                    A                    D                         G
 Ella Despidio a su amor, el partio en un barco en el muelle de San Blas
Em                   A                  D                          G
 El juro y que volvería y empapada en llanto ella juro que esperaria
Em                A                       D                 G
 Miles de lunas pasaron y siempre ella estaba en el muelle esperando
Em                   A                  D             G
 Muchas tardes se anidaron se anidaron en su pelo y en sus labios.

 Em A        D            G
      Uh uh uh uh uh uh uh   2 veces

ESTROFA 2.
     
   Em                A                 D                 G
E|-----------------------------------------------------------------[2]--|
B|---------8---------------5----------------5---------------3?-2---[3]|
G|-----8-------8-------6-------6--------7-------7-------4--------4----|
D|---9---9---9---9---7---7---7---7----7---7---7---7---5---5---5---------|
A|-7--------------------------------5-----------------------------------|
E|-----------------5--------------------------------3-------------------|


Bueno en la estrofa 2 entran dos guitarras aquí les pongo la de Sergio 
Vallin escúchenla bien así la van a sacar y las notas que puse
entre   se pueden cambiar por estas [ ] pero  las notas que usa  
Sergio son las que puse primera.Verán en la estrofa 2 entra una
guitarra eléctrica claro la de Sergio y otra acústica la de su hermano  
Fernando  su hermano hace lo que hicimos en la introducción  
así que si quieren hacer dos guitarras ya saben y bueno igual si.
desean pueden usar para el párrafo 2 la tablatura del intr. .

Em                   A                    D                          G
 Llevaba el mismo vestido y por si el volviera no se fuera a equivocar
Em                   A           D                            G
  Los cangrejos le mordían sus ropajes, su tristeza y su ilusión
Em                    A                D                G
 Y el tiempo se escurrió y sus ojos se le llenaron de amaneceres
Em                 A                 D          G
 Y del mar se enamoro y su cuerpo se enraizó en el muelle.



CORO:

   D                 A/C#               
e|----------0-------------------0---------
B|------3--------3---------2--------2-----
G|----2---2----2---2-----2---2----2---2---
D|-0--------------------------------------
A|--------------------4-------------------
E|----------------------------------------

  D/B              A/C#
----------0-----------------0-------------
------3-------3---------2------2---2------
----2---2---2---2-----2---2------2--------
------------------------------------------
--2----------------4----------------------
------------------------------------------



   D                 A/C#               
------------0-------------------0---------
--------3--------3---------2--------2-----
------2---2----2---2-----2---2----2---2---
---0--------------------------------------
----------------------4-------------------
------------------------------------------

  G               A                 D
----------3-------------------------[----0--]
------3-------3--------2---3---2----[---3---]
----0---0---0---0----2---2---2---2--[--2----]
------------------------------------[-0-----]
------------------0-----------------[-------]
--3---------------------------------[-------]

    D                 A/C#    D/B               A/C#
 Sola, sola, en el olvido. Sola, sola, con su espíritu
     D                 A/C#          G   A                   D
 Sola, sola, con su amor el mar. Solaaa, en el muelle de San Blas.

ESTROFA 3:
 
Para  esta parte del párrafo usamos la primera tablatura que les di:	

Em                    A             D                         G
 Su cabello se blanqueo pero ningún barco a su amor le devolvía
Em                    A                 D                      G
 y en el pueblo le decían, le decían la loca del muelle de San Blas

Para esta otra parte usamos la segunda tablatura que les di:

Em                 A                 D             G
 Y una tarde de abril la intentaron transladar al manicomio
Em                   A                D           G
 Nadie la pudo arrancar y del mar nunca jamás la separaron.


Se repite coro una ves .INTERMEDIO DE COROS:

   Bm                                    
E|-------------2-----------------2--------
B|-----3---2-------------3---2------------
G|---4---4---4---4-----4---4---4---4------
D|----------------------------------------
A|-2-----------------2--------------------
E|----------------------------------------

   G
-------3---2---0---------3---2---0--------
-----3---3---3---3-----3---3---3---3------
------------------------------------------
------------------------------------------
------------------------------------------
---3----------------3---------------------


  Bm                                                   
--------------2-----------------2---------
------3---2-------------3---2-------------
----4---4---4---4-----4---4---4---4-------
------------------------------------------
--2-----------------2---------------------                                                
------------------------------------------

 --Uooooooooh  oooh     oooh
  A                 D      aquí rasgueo rápido
---------------------------222333---------]
------2---3---2-----3333---333333---------]
----2---2---2---2---2222---222222---------]
--------------------0000------------------]
--0---------------------------------------]                                                 
------------------------------------------]

Repetimos coro dos veces .

TOQUE FINAL:
Parte 1:
   D                                  
E|--5-5-x-5-x-5-x-x------5-5-x-5-x-5-x-x------              
B|--5-5-x-5-x-5-x-x------5-5-x-5-x-5-x-x------              
G|--7-7-x-7-x-7-x-x------7-7-x-7-x-7-x-x------               
D|--7-7-x-7-x-7-x-x------7-7-x-7-x-7-x-x------               
A|--5-5-x-5-x-5-x-x------5-5-x-5-x-5-x-x------                 
E|--5-5-x-5-x-5-x-x------5-5-x-5-x-5-x-x------









    UOOOOOOOOOOOOOOOOOOOOOH  OH OH OH OH OH        
   G                
E|--3-3-x-3-x-3-x-x------3-3-x-3-x-3-x-x-------                    
B|--3-3-x-3-x-3-x-x------3-3-x-3-x-3-x-x-------               
G|--4-4-x-4-x-4-x-x------4-4-x-4-x-4-x-x-------                       
D|--5-5-x-5-x-5-x-x------5-5-x-5-x-5-x-x-------                        
A|--5-5-x-5-x-5-x-x------5-5-x-5-x-5-x-x-------                           
E|--3-3-x-3-x-3-x-x------3-3-x-3-x-3-x-x-------  

    OHHHHHHHHHH                YEH EH EH EH
    D         
E|--5-5-x-5-x-5-x-x------5-5-x-5-x-5-x-x------              
B|--5-5-x-5-x-5-x-x------5-5-x-5-x-5-x-x------              
G|--7-7-x-7-x-7-x-x------7-7-x-7-x-7-x-x------               
D|--7-7-x-7-x-7-x-x------7-7-x-7-x-7-x-x------               
A|--5-5-x-5-x-5-x-x------5-5-x-5-x-5-x-x------                 
E|--5-5-x-5-x-5-x-x------5-5-x-5-x-5-x-x------

   EHHHHHHHHHHH                     rasgueo
   G                                rapido
E|--3-3-x-3-x-3-x-x------3-3-3-------55555----                    
B|--3-3-x-3-x-3-x-x------3-3-3-------55555----               
G|--4-4-x-4-x-4-x-x------4-4-4-------66666----                       
D|--5-5-x-5-x-5-x-x------5-5-5-------77777----                        
A|--5-5-x-5-x-5-x-x------5-5-5-------77777----                           
E|--3-3-x-3-x-3-x-x------3-3-3-------55555----  

Parte 2:
Para esta parte el rasgueo es mas rapido:
   D                        D          
E|--5-x-5-x-5-x-5?-5-5------5-x-5-x-5-x-5?-5-5---              
B|--5-x-5-x-5-x-5?-5-5------5-x-5-x-5-x-5?-5-5---              
G|--7-x-7-x-7-x-7?-7-7------7-x-7-x-7-x-7?-6-6---               
D|--7-x-7-x-7-x-7?-7-7------7-x-7-x-7-x-7?-7-7---               
A|-----------------------------------------------                 
E|-----------------------------------------------

   G                        G
E|--3-x-3-x-3-x-3?-3-3------3-x-3-x-3-x-3--3-3--- 
B|--3-x-3-x-3-x-3?-3-3------3-x-3-x-3-x-3?-3-3---              
G|--4-x-4-x-4-x-4?-4-4------4-x-4-x-4-x-4?-5-5---                       
D|--5-x-5-x-5-x-5?-5-5------5-x-5-x-5-x-5?-5-5---                       
A|-----------------------------------------------                           
E|-----------------------------------------------  


      D         D         G    G
Se quedo, se quedo, sola, sola.
      D         D                     G     G
Se quedo, se quedo, con el sol y con el mar


Parte 3:
Para esta parte el rasgueo usamos el mismo ritmo que el de 
Parte 2 Ok espero les salga:

   D                             D     
E|-/-9-x-10-x-10-x-10?-12-12------9-x-10-x-10-x-10---9----             
B|-/10-x-10-x-10-x-10?-12-12-----10-x-10-x-10-x-10--10----             
G|-/-x-x--x-x--x-x--x---x--x------x-x--x-x--x-x--x---x----               
D|--------------------------------------------------------               
A|--------------------------------------------------------                 
E|--------------------------------------------------------

   G                          G        
E|--/-x-x-x-x-x-x-x?-x-x------x-x-x-x-x-x-x--x-------------              
B|--/-8-x-7-x-7-x-7?-7-7------8-x-7-x-7-x-7--8-------------             
G|--/-7-x-7-x-7-x-7?-9-9------7-x-7-x-7-x-7--7------------- 
D|--/-x-x-x-x-x-x-x?-x-x------x-x-x-x-x-x-x--x------------- 
A|---------------------------------------------------------                 
E|---------------------------------------------------------

            D              D                      G              G
Se quedo ahi, se quedo hasta el fin.  Se quedo ahi, se quedo,
                 D        D              G     G
en el muelle de San Blas      UOOOOH OH OH OH
           D         D  G G
Sola, Sola se quedo.
  


Y bueno llegamos al final del tema ojala les haya gustado y 
Practiquenlo muchisimo y si desean algunos consejos o la version
Umplegged me escriben ami msn o las versiones en concierto 
Que son padres . bueno chao y suerte.


Fuente: tusacordes.com