a b c d e f g h i j k l m n o p q r s t u v w x y z 0-9

En El Muelle De San Blas

Mana

			
Maná: En el muelle de San Blas


Hola. Este es mi primer aporte espero que les guste. Les
traigo esta canción de Maná-En el muelle de San Blas.
Recomiendo tocar el tema con una guitarra que haga el rasgueo
y otra que puntee.
También les pido que lean con muchísima atención y que tengan mucha paciencia!, porque algunas Tabs parecen difíciles
a simple vista pero cuando le agarren la mano van a ver que es
fácil.

Intro:

La canción comienza solamente con la guitarra que puntea,
con el siguiente arpegio1 .

E  -----------|-----------|-----------|------------|
A  -----------|-----------|-----------|------------|
D  -9---------|-7---------|-7---------|-5----------|
G  --9-9--9-9-|--6-6--6-6-|--7-7--7-7-|--4-4-------|
B  ---8----8--|---5----5--|---5----5--|---3------3-|
E  -----7-----|-----5-----|-----5-----|-----3---2--|

E  -----------|-----------|-----------|------------|
A  -----------|-----------|-----------|------------|
D  -9---------|-7---------|-7---------|-5----------|
G  --9-9--9-9-|--6-6--6-6-|--7-7--7-7-|--4-4-------|
B  ---8----8--|---5----5--|---5----5--|---3------3-|
E  -----7-----|-----5-----|-----5-----|-----3---2--|

Verso:con decir "verso", muchos ya deben saber,pero para los
que no, me refiero que es toda la parte antes del
coro o estribillo 

Tablatura: Se toca durante toda el verso el arpegio de arriba.

Rasgueo:

Em                     A                   D
 Ella despidió a su amor, el partió en un barco en el muelle de
      G
San Blas

Em                 A                  D
 El juró que volvería y empapada en llanto ella juró que
       G
esperaría
Em                A                       D
 Miles de lunas pasaron y siempre ella estaba en el muelle,
 G
esperando
Em                   A                        D
 Muchas tardes se anidaron, se anidaron en su pelo y en sus
     G
labios

Uh uh uh uh uh uh X2 veces 


Em                   A                     D
 Llevaba el mismo vestido y por si el volviera, no se fuera a
        G
equivocar
Em                   A                         D             G
Los congrejos le mordían sus ropajes, su tristeza y su ilusión
Em                      A                        D             G
 Y el tiempo se escurrió y sus ojos se le llenaron de amaneceres
Em                  A                      D            G
 Y del mar se enamoro y su cuerpo se enraizó en el muelle


Coro: Al mismo tiempo que se canta el coro, se toca este
arpegio y por supuesto la rítmica.

E  -----------|-----------|------------|------------|
A  -----------|-4---------|------------|-4----------|
D  -0---------|-----------|-0----------|------------|
G  --2-2--2-2-|--2-2--2-2-|--2-2---2-2-|--2-2---2-2-|
B  ---3----3--|---3----3--|---3-----3--|---3-----3--|
E  -----0-----|-----0-----|-----0------|------0-----|

E  -----------|-----------|
A  -----------|-4---------|
D  -0---------|-----------|
G  --2-2--2-2-|--2-2--2-2-|
B  ---3----3--|---3----3--|
E  -----0-----|-----0-----|

    D                 A
Sola, sola en el olvido
    D                 A
Sola, sola con su espíritu
    D                A
Sola, sola con su amor el mar
   G    A               D
Sola, en el muelle de Blas


Nota:el coro termina con las siguientes notas: G, A, D, tanto
para la guitarra rítmica,como para la que puntea:
( ACLARACIóN: Al mismo tiempo que dice en el muelle de San?Blas?
 ahí termina el arpegio y la guitarra que toca la ritmica:


(Una vez que termina la batería, vuelve a empezar el arpegio 1,
es decir el de la intro) 

E  -----------|-----------|-----------|----------------|
A  -----------|-----------|-----------|----------------|
D  -9---------|-7---------|-7---------|-5--------------|
G  --9-9--9-9-|--6-6--6-6-|--7-7--7-7-|--4-4-----------|
B  ---8----8--|---5----5--|---5----5--|---3----------3-|
E  -----7-----|-----5-----|-----5-----|-----3-------2--|


Nota: el arpegio 1 en esta parte de la canción,
se toca UNA SOLA VEZ sin la guitarra rítmica
(y después vuelve a cantar) Con el mismo punteo
(el arpegio 1) y AHORA SI LA GUITARRA RITMICA



Em                     A                  G                    G
 Su cabello se blanqueó, pero ningún barco a su amor le devolvía
Em                     A                  D
 Y en el pueblo le decían, le decían la loca en el muelle de San
   G
Blas
Em                  A                    D                G
 Y una tarde de abril, la intentaron trasladar al manicomio
Em                   A                G                  G
 Nadie la pudo arrancar y del mar nunca jamás la separaron


Coro:

    D                 A
Sola, sola en el olvido
    D                 A
Sola, sola con su espíritu
    D                A
Sola, sola con su amor el mar
   G    A               D
Sola, en el muelle de Blas

E  -----------|-----------|------------|------------|
A  -----------|-4---------|------------|-4----------|
D  -0---------|-----------|-0----------|------------|
G  --2-2--2-2-|--2-2--2-2-|--2-2---2-2-|--2-2---2-2-|
B  ---3----3--|---3----3--|---3-----3--|---3-----3--|
E  -----0-----|-----0-----|-----0------|------0-----|

E  -----------|-----------|
A  -----------|-4---------|
D  -0---------|-----------|
G  --2-2--2-2-|--2-2--2-2-|
B  ---3----3--|---3----3--|
E  -----0-----|-----0-----|


Fijensé que en el momento que dice ?Blas? comienza otro
arpegio distinto a los anteriores (seria un intermedio) :
E  --------------|--------------|-----------|-----------|
A  --------------|--------------|-----------|-----------|
D  -4------------|-4------------|-----------|-----------|
G  --4--4-4-4----|--4--4-4-4----|-0---------|-0---------|
B  ---3--2-----2-|---3--2-----2-|---------3-|---------3-|
E  -----------2--|-----------2--|--0-3-2-0--|--0-3-2-0--|


E  --------------|--------------|-----------|-----------|
A  --------------|--------------|-----------|-----------|
D  -4------------|-4------------|-----------|-----------|
G  --4--4-4-4----|--4--4-4-4----|-0---------|-0---------|
B  ---3--2-----2-|---3--2-----2-|---------3-|---------3-|
E  -----------2--|-----------2--|--0-3-2-0--|--0-3-2-0--|




Después el intermedio termina así:

E  -5-5-5-5-5-5-5-------------|
A  -5-5-5-5-5-5-5-------------|
D  -7-7-7-7-7-7-7-------------|
G  -7-7-7-7-7-7-7-------------|
B  -5-5-5-5-5-5-5-------------|
E  -5-5-5-5-5-5-5-------------|


Coro:

    D                 A
Sola, sola en el olvido
    D                 A
Sola, sola con su espíritu
    D                A
Sola, sola con su amor el mar
   G    A               D
Sola, en el muelle de Blas


(Atención: el siguiente arpegio a simple vista puede ser que
sea el mismo de los anteriores, pero hay una diferencia
en la última parte y es así:
También se lo toca al mismo tiempo que la canción 


E  -----------|-----------|------------|------------|
A  -----------|-4---------|------------|-4----------|
D  -0---------|-----------|-0----------|------------|
G  --2-2--2-2-|--2-2--2-2-|--2-2---2-2-|--2-2---2-2-|
B  ---3----3--|---3----3--|---3-----3--|---3-----3--|
E  -----0-----|-----0-----|-----0------|------0-----|

E  -----------|-----------|-------------------|
A  -----------|-4---------|-------------------|
D  -0---------|-----------|-0-----------------|
G  --2-2--2-2-|--2-2--2-2-|--2-2--------------|
B  ---3----3--|---3----3--|---3--------3-2-0--|
E  -----0-----|-----0-----|---------2-0-------|



Coro:
Acá es lo mismo... Al mismo tiempo que se canta el
estribillo o coro se puntea 

    D                 A
Sola, sola en el olvido
    D                 A
Sola, sola con su espíritu
    D                A
Sola, sola con su amor el mar
   G    A               D
Sola, en el muelle de Blas


E  -----------|-----------|------------|------------|
A  -----------|-4---------|------------|-4----------|
D  -0---------|-----------|-0----------|------------|
G  --2-2--2-2-|--2-2--2-2-|--2-2---2-2-|--2-2---2-2-|
B  ---3----3--|---3----3--|---3-----3--|---3-----3--|
E  -----0-----|-----0-----|-----0------|------0-----|

E  -----------|-----------|
A  -----------|-4---------|
D  -0---------|-----------|
G  --2-2--2-2-|--2-2--2-2-|
B  ---3----3--|---3----3--|
E  -----0-----|-----0-----|

Termina con G, A, D

(En ese momento queda la batería tocando unos 5 segundos
aproximadamente y vuelve la guitarra haciendo el siguiente
rasgueo:

E  -5-5-5-5-5-5-5-5-|-5-5-5-5-5-5-5-5-|-3-3-3-3-3-3-3-3--
A  -5-5-5-5-5-5-5-5-|-5-5-5-5-5-5-5-5-|-3-3-3-3-3-3-3-3--
D  -7-7-7-7-7-7-7-7-|-7-7-7-0-7-7-7-0-|-5-5-5-5-5-5-5-5--
G  -7-7-7-7-7-7-7-7-|-7-7-7-7-7-7-7-0-|-4-4-4-4-4-4-4-4--
B  -5-5-5-5-5-5-5-5-|-5-5-5-5-5-5-5-0-|-3-3-3-3-3-3-3-3--
E  -5-5-5-5-5-5-5-5-|-5-5-5-5-5-5-5-0-|-3-3-3-3-3-3-3-3--


E  -3-3-3-3-3-3-3-3-|-5-5-5-5-5-5-5-5-|-5-5-5-5-5-5-5-5--
A  -3-3-3-3-3-3-3-3-|-5-5-5-5-5-5-5-5-|-5-5-5-5-5-5-5-5--
D  -5-5-5-5-5-5-5-5-|-7-7-7-7-7-7-7-7-|-7-7-7-7-7-7-7-7--
G  -4-4-4-4-4-4-4-4-|-7-7-7-7-7-7-7-7-|-7-7-7-7-7-7-7-7--
B  -3-3-3-3-3-3-3-3-|-5-5-5-5-5-5-5-5-|-5-5-5-5-5-5-5-5--
E  -3-3-3-3-3-3-3-3-|-5-5-5-5-5-5-5-5-|-5-5-5-5-5-5-5-5--

E  -3-3-3-3-3-3-3-3---3-3-3-3-5-5-5-5-|
A  -3-3-3-3-3-3-3-3---3-3-3-3-5-5-5-5-|
D  -5-5-5-5-5-5-5-5---5-5-5-5-7-7-7-7-|
G  -4-4-4-4-4-4-4-4---4-4-4-4-7-7-7-7-|
B  -3-3-3-3-3-3-3-3---3-3-3-3-5-5-5-5-|
E  -3-3-3-3-3-3-3-3---3-3-3-3-5-5-5-5-|

ATENCIÓN: acá vuelve el coro a cantar mientras se sigue
tocando los tabs de abajo


E  -5-5-5-5-5-5-5-5-|-5-5-5-5-5-5-5-5-|-3-3-3-3-3-3-3-3------
A  -5-5-5-5-5-5-5-5-|-5-5-5-5-5-5-5-5-|-3-3-3-3-3-3-3-3------
D  -7-7-7-7-7-7-7-7-|-7-7-7-7-7-7-7-7-|-5-5-5-5-5-5-5-5------
G  -7-7-7-7-7-7-7-7-|-7-7-7-7-7-7-7-7-|-4-4-4-4-4-4-4-4------
B  -5-5-5-5-5-5-5-5-|-5-5-5-5-5-5-5-5-|-3-3-3-3-3-3-3-3------
E  -5-5-5-5-5-5-5-5-|-5-5-5-5-5-5-5-5-|-3-3-3-3-3-3-3-3------


E  -3-3-3-3-3-3-3-3-|-5-5-5-5-5-5-5-5-|-5-5-5-5-5-5-5-5------
A  -3-3-3-3-3-3-3-3-|-5-5-5-5-5-5-5-5-|-5-5-5-5-5-5-5-5------
D  -5-5-5-5-5-5-5-5-|-7-7-7-7-7-7-7-7-|-7-7-7-7-7-7-7-7------
G  -4-4-4-4-4-4-4-4-|-7-7-7-7-7-7-7-7-|-7-7-7-7-7-7-7-7------
B  -3-3-3-3-3-3-3-3-|-5-5-5-5-5-5-5-5-|-5-5-5-5-5-5-5-5------
E  -3-3-3-3-3-3-3-3-|-5-5-5-5-5-5-5-5-|-5-5-5-5-5-5-5-5------

E  -3-3-3-3-3-3-3-3-|-3-3-3-3-3-3-3-3-|
A  -3-3-3-3-3-3-3-3-|-3-3-3-3-3-3-3-3-|
D  -5-5-5-5-5-5-5-5-|-5-5-5-5-5-5-5-5-|
G  -4-4-4-4-4-4-4-4-|-4-4-4-4-4-4-4-4-|
B  -3-3-3-3-3-3-3-3-|-3-3-3-3-3-3-3-3-|
E  -3-3-3-3-3-3-3-3-1-3-3-3-3-3-3-3-3-|



(Al mismo tiempo que se toca el arpegio de más abajo
se sigue cantando y también sigue tocando la otra guitarra) 

     D7        D7        G    G
Se quedo, se quedo, sola, sola.
      D7        D7                    G     G
Se quedo, se quedo, con el sol y con el mar


D7            D7
Se quedó ahí, se quedó hasta el fin
       G             G                        D7
Se quedó ahí, se quedó en el muelle de San Blas


E  -----------------|-----------------|
A  -----------------|-----------------|
D  -----------------|-----------------|
G  -----------------|-----------------|
B  -----------------|-----------------|
E  -9-9-10-10-12-12-|-9-9-10-10-12-12-|

E  ---------------|---------------|
A  ---------------|---------------|
D  ---------------|---------------|
G  ---------------|---------------|
B  ---------------|---------------|
E  -10-10-9-9-7-7-|-10-10-9-9-7-7-|

E  -----------------|-----------------|
A  -----------------|-----------------|
D  -----------------|-----------------|
G  -----------------|-----------------|
B  -----------------|-----------------|
E  -9-9-10-10-12-12-|-9-9-10-10-12-12-|



E  ---------------|---------------|
A  ---------------|---------------|
D  ---------------|---------------|
G  ---------------|---------------|
B  ---------------|---------------|
E  -10-10-9-9-7-7-|-10-10-9-9-7-7-|

            D7
Sola, sola se quedó




E  -----------------|-----------------|
A  -----------------|-----------------|
D  -----------------|-----------------|
G  -----------------|-----------------|
B  -----------------|-----------------|
E  -9-9-10-10-12-12-|-9-9-10-10-12-12-|

E  ---------------|-----------------0------|
A  ---------------|-----------------0------|
D  ---------------|-----------------0------|
G  ---------------|-0---0-----------0------|
B  ---------------|--0---0--0-------0------|
E  -10-10-9-9-7-7-|---0---0---------3------|


Ahí termina la canción espero que le hayan entendido,
cualquier duda dejen msj en mi dirección:
PabloOlmos_3@hotmail.com

Fuente: tusacordes.com