a b c d e f g h i j k l m n o p q r s t u v w x y z 0-9

En El Muelle De San Blas

Mana

			
En En realidad hay muchas maneras de tocar esta canción...
A mi me gusta la siguiente manera:

   Em                      REm             LAm              SOL
e -----------0-----------------1-----------------0-------------------2-------|
B -------0-------0---------3-------3---------1-------1-----------2-------2---|
G -----0---0---0---0-----2---2---2---2-----2---2---2---2-------0---0---0---0-|
D ---------------------------------------2-----------------------------------|
A ---------------------0-----------------------------------------------------|
E ?0--------------------------------------------------------3----------------|

Otra Manera es Esta:

Em    A       D5     G
e ---7-----5-------5------3------
B ---8-----5--0   ----5------3------
G ---9-----6--2----7--0---4------
D ---9-----7--2----7--2---5------
A ---7-----7--2----5--3---5------
E ---7-----5--0----5--0---3------

    D5		   A               D5             A
e --------0--------------0---------------2--------------0------------
B -----3----3--3------2----2--2-------3----3--3------2----2--2-------
G ----2--2---2--2----2--2---2--2-----2--2---2--2----2--2---2--2------
D --0------------------------------0---------------------------------
A -----------------0------------------------------0------------------
E -------------------------------------------------------------------

    D5             A               G               A
e --------2--------------0---------------3----------------0----------
B -----3----3--3------2----2--2-------3----3--3-------2-----2--2-----
G ----2--2---2--2----2--2---2--2-----4--4---4--4-----2--2----2--2----
D --0----------------------------------------------------------------
A -----------------0-------------------------------0-----------------
E ---------------------------------3---------------------------------


    Em		      A		       D5	        G
e ---------7-----------------5----------------5----------------3---3----
B ------8----8--8---------5----5--5--------5----5--5--------3----3---3--
G ----9---9---9--9------6---6---6--6-----7---7---7--7-----4---4---4-----
D ---------------------------------------------------------------------
A --7----------------------------------5--------------------------------
E --------------------5---------------------------------3---------------
  
D
E|-------------3---------------3--------3---2---0-------3---2---0---|
B|-----3---2-----------3---2----------3---3---3---3---3---3---3---3-|
G|---2---2---2---2---2---2---2---2--2---------------2---------------|
D|-0---------------0------------------------------------------------|
A|------------------------------------------------------------------|
E|------------------------------------------------------------------|

                                   
-------------3---------------3--------3---2---0-------3---2---0---|
-----3---2-----------3---2----------3---3---3---3---3---3---3---3-|
---2---2---2---2---2---2---2---2--2---------------2---------------|
-0---------------0------------------------------------------------|
------------------------------------------------------------------|
------------------------------------------------------------------|

 Bueno?
Espero que les guste lo que saque con mi viola!!! si le encuentran algún error avísenme!!!jeje nos vemos!!!

Fuente: tusacordes.com