a b c d e f g h i j k l m n o p q r s t u v w x y z 0-9

En El Muelle De San Blas

Mana

			
El muelle de san Blas



Intro: 2 veces y luego la letra con el mismo arpegio :

Em                A                 D                 G
E|---------7-------|---------5-------|---------5-------|---------3---2---|
B|-----8-------8---|-----5-------5---|-----7-------7---|-----3---------3-|
G|---9---9---9---9-|---6---6---6---5-|---7---7---7---7-|---4---4---4-----|
D|-----------------|-----------------|-----------------|-----------------|
A|-7---------------|-----------------|-5---------------|-----------------|
E|-----------------|-5---------------|-----------------|-3---------------|



Letra:
Em                    A                    D                         G
 Ella Despidió a su amor, el partió en un barco en el muelle de San Blas

Em                   A                  D                          G
 El juro y que volvería y empapada en llanto ella juro que esperaría

Em                A                       D                 G
 Miles de lunas pasaron y siempre ella estaba en el muelle esperando

Em                   A                  D             G
 Muchas tardes se anidaron se anidaron en su pelo y en sus labios.












Intro: 2 veces y luego la letra con el mismo arpegió


Em                A                 D                 G
E|---------7-------|---------5-------|---------5-------|---------3---2---|
B|-----8-------8---|-----5-------5---|-----7-------7---|-----3---------3-|
G|---9---9---9---9-|---6---6---6---5-|---7---7---7---7-|---4---4---4-----|
D|-----------------|-----------------|-----------------|-----------------|
A|-7---------------|-----------------|-5---------------|-----------------|
E|-----------------|-5---------------|-----------------|-3---------------|


Letra:

Em                   A                    D                          G
 Llevaba el mismo vestido y por si el volviera no se fuera a equivocar

Em                   A           D                            G
 Los cangrejos le mordían sus ropajes, su tristeza y su ilusión

Em                    A                D                G
 Y el tiempo se escurrió y sus ojos se le llenaron de amaneceres

Em                 A                 D          G
 Y del mar se enamoro y su cuerpo se enraizó en el muelle.












Coro:


D                   A                D                A
sola       sola en el olvido                sola con su espíritu
e|---------2----------------0----------------2----------------0-------
B|-----3-------2--------2-------2--------3-------3--------2-------2---
G|---2---2---3--3-----2---2---2---2----2---2---2---2----2---2---2---2-
D|0----------------------------------0--------------------------------
A|------------------0---------------------------------0---------------
e|--------------------------------------------------------------------
	        D

  D                 A                  G	             En el muelle
sola       sola con su amor el mar     solaaaaaaaaa        de san Blas
e|---------2----------------0-----------------3-----------0------2----
B|-----3-------2--------2-------2----------0-----0------2-----2?-3----
G|---2---2---3--3-----2---2---2---2-------0-0---0-0---2--2---2-2-2----
D|0--------------------------------------------------------------0----
A|------------------0-------------------------------0-----------------
e|-------------------------------------3------------------------------
















Batería : 

1 solo y le sigues con la letra
e|---------7---------------5----------------5--------------3---2---|
b|-----8------8--------5-------5--------5-------7-------3--------3-|
g|---9---9---9--9----6---6---6---6----7---7---5---5---4--4---4-----|
d|-----------------------------------------------------------------|
a|-7-------------------------------5-------------------------------|
E|-----------------5--------------------------------3--------------|



Letra: arpeggio 

Em             A                    D                G
 Su cabello se blanqueo pero ningún barco a su amor le devolvía

Em                A         D                    G
Y en el pueblo le decían, le decían la loca del muelle de San Blas

Em                 A                 D             G
 Y una tarde de abril le intentaron trasladar al malcomió

Em                   A                D           G
 Nadie la pudo arrancar y del mar nunca jamás la separaron.






Coro:
D                   A                D                A
sola       sola en el olvido                sola con su espíritu
e|---------2----------------0----------------2----------------0-------
B|-----3-------2--------2-------2--------3-------3--------2-------2---
G|---2---2---3--3-----2---2---2---2----2---2---2---2----2---2---2---2-
D|0----------------------------------0--------------------------------
A|------------------0---------------------------------0---------------
e|--------------------------------------------------------------------
	
  D                 A                  G	             En el muelle
sola       sola con su amor el mar     solaaaaaaaaa        de san Blas
e|---------2----------------0-----------------3-----------0------2----
B|-----3-------2--------2-------2----------0-----0------2-----2?-3----
G|---2---2---3--3-----2---2---2---2-------0-0---0-0---2--2---2-2-2----
D|0--------------------------------------------------------------0----
A|------------------0-------------------------------0-----------------
e|-------------------------------------3------------------------------





E|-------------3---------------3--------3---2---0-------3---2---0---
B|-----3---2-----------3---2----------3---3---3---3---3---3---3---3-
G|---2---2---2---2---2---2---2---2--2---------------2---------------
D|-0---------------------------------------------------------------
A|------------------------------------------------------------------
E|------------------------------------------------------------------

                                  Uooooooooh  oooh     oooh
-------------3---------------3--------3---2---0-------3---2---0---|
-----3---2-----------3---2----------3---3---3---3---3---3---3---3-|
---2---2---2---2---2---2---2---2--2---------------2---------------|
----------------0------------------------------------------------|
------------------------------------------------------------------|
------------------------------------------------------------------|

Coro:
D                   A                D                A
sola       sola en el olvido                sola con su espíritu
e|---------2----------------0----------------2----------------0-------
B|-----3-------2--------2-------2--------3-------3--------2-------2---
G|---2---2---3--3-----2---2---2---2----2---2---2---2----2---2---2---2-
D|0----------------------------------0--------------------------------
A|------------------0---------------------------------0---------------
e|--------------------------------------------------------------------
	
  D                 A                  G	             
sola       sola con su amor el mar     solaaaaaaaaa        
e|---------2----------------0-----------------3-----------0----------
B|-----3-------2--------2-------2----------0-----0------2-----2?-----
G|---2---2---3--3-----2---2---2---2-------0-0---0-0---2--2---2-2-----
D|0------------------------------------------------------------------
A|------------------0-------------------------------0-----------------
e|-------------------------------------3------------------------------

D                   A                D                A
sola       sola en el olvido                sola con su espíritu
e|---------2----------------0----------------2----------------0-------
B|-----3-------2--------2-------2--------3-------3--------2-------2---
G|---2---2---3--3-----2---2---2---2----2---2---2---2----2---2---2---2-
D|0----------------------------------0--------------------------------
A|------------------0---------------------------------0---------------
e|--------------------------------------------------------------------
	
  D                 A                  G	             En el muelle
sola       sola con su amor el mar     solaaaaaaaaa        de san Blas
e|---------2----------------0-----------------3-----------0------2----
B|-----3-------2--------2-------2----------0-----0------2-----2?-3----
G|---2---2---3--3-----2---2---2---2-------0-0---0-0---2--2---2-2-2----
D|0--------------------------------------------------------------0----
A|------------------0-------------------------------0-----------------
e|-------------------------------------3------------------------------
Base para lo que sigue :
Am                G                 D7
E|-5-5-x-5-x-5-x-x-|-3-3-x-3-x-3-x-x |-5-5-x-5-x-5-x-x-|
B|-5-5-x-5-x-5-x-x-|-3-3-x-3-x-3-x-x-|-7-7-x-7-x-7-x-x-|
G|-5-5-x-5-x-5-x-x-|-4-4-x-4-x-4-x-x-|-5-5-x-5-x-5-x-x-|
D|-7-7-x-7-x-7-x-x-|-5-5-x-5-x-5-x-x-|-7-7-x-7-x-7-x-x-|
A|-7-7-x-7-x-7-x-x-|-5-5-x-5-x-5-x-x-|-5-5-x-5-x-5-x-x-|
E|-5-5-x-5-x-5-x-x-|-3-3-x-3-x-3-x-x-|-5-7-x-7-x-7-x-x-|




Am Am G      G             Am Am          G   G
      UOOOOH OH OH OH OH OH        YEH EH EH EH

      D7        D7        G    G
Se quedo, se quedo, sola, sola.
      D7        D7                    G     G
Se quedo, se quedo, con el sol y con el mar



Empieza a hacer oro riff:
D          
Se quedo ahí , se quedo hasta el fin 
G                     G                D
Se quedo ahí, se quedo en el muelle de San Blas
G           G           D        G   G 
Oh no no no , sola sola se quedo


Se termina con la bateria y ya finnnnnnnnnnnnnnn

Fuente: tusacordes.com