a b c d e f g h i j k l m n o p q r s t u v w x y z 0-9

En El Muelle De San Blas

Mana

			
INTRO

G----------7------I------------------------------------------------I
D------7--------5-I----44-5-7-----77-5-4-5-----44-5-7----77-5-4-5--I
A--7--------------I-77----------------------55---------------------I
E-----------------I------------55---------------------33-----------I

ELLA DESPIDIO A SU AMOR, EL PARTIO EN UN BARCO EN EL MUELLE DE SAN BLAS  1
EL JURO QUE VOLVERIA Y EMPAPADA EN LLANTO ELLA JURO QUE ESPERARIA 2
MILES DE LUNAS PASARON Y SIEMPRE ELLA ESTABA EN EL MUELLE ESPERANDO 3
MUCHAS TARDES SE ANIDARON SE ANIDARON EN SU PELO Y EN SUS LABIOS 4

                 1                                 2
G-------------------------------------I-------------------------------------I
D----44-5-7-----------44-5-7----------I---44-5-7------------44-5-7--77-5-4-5I
A-77---------444-7--55----------------I-77------------4-7-55----------------I
E----------55---------------33-333-2//I---------55-555------------33--------I
     
                3                                   4
G-------------------------------------I-------------------------------------I
D---44-5-7-----------44-5-7--55-0-4-0-I---44-5-7----------44-5-7---55-0-4-0-I
A-77-------------4--------------------I-77------------4---------------------I
E---------55-555---22------33---------I---------55-555--22-------33---------I



                UUUUUUUUUUUH                    UUUUUUUUUUUUUH
G-------------------------------------I-------------------------------------I
D---44-5-7--77-5-4-5--44-5-7--55-0-4-0I---44-5-7--77-5-4-5--44-5-7?-77-5-4-5I
A-77----------------------------------I-77----------------------------------I
E---------55--------22------33--------I---------55--------22------33--------I


LLEVABA EL MISMO VESTIDO Y POR SI EL VOLVIERA NO SE FUERA A EQUIVOCAR 5
LOS CANGREJOS LE MORDIAN SU ROPAJE SU TRISTEZA Y SU ILUSION 6
Y EL TIEMPO SE ESCURRIO Y SUS OJOS SE LE LLENARON DE AMANECERES 7
Y DEL MAR SE ENAMORO Y SU CUERPO SE ENRAIZO EN EL MUELLE 8



                 5                                6
G-------------------------------------I-------------------------------------I
D---44-5-7------------44-5-7--77-5-4-5I---44-5-7----------------4---77-5-4-5I
A-77------------4-7-55----------------I-77------------4-7-55-555------------I
E---------55-555------------33--------I---------55-555------------33--------I
           
                 7                                8
G-------------------------------------I-------------------------------------I
D---44-5-7-----------44-5-7--77-5-4-5-I---44-5-7-----5-4-5--44-5-7--55-0-4-5I
A-77-------------4--------------------I-77----------------------------------I
E---------55-555---22------33---------I---------55-55-----22------33--------I




CORO:

G---------------------------------------------------------------------------I
D---44-5-7---44-5-7---44-5-7------------44-5-7----44-5-7---44-5-7--44-5-7---I
A-55-------44-------22-------44----4--55-------44---------------------------I
E-------------------------------555-5--------------------33------55---------I

G----------I------------------------------------------------I
D----------I----44-5-7-----77-5-4-5-----44-5-7----77-5-4-5--I
A-5***///--I-77----------------------55---------------------I
E----------I------------55---------------------33-----------I

SU CABELLO SE BLANQUEO PERO NINGUN BARCO A SU AMOR LE DEVOLVÍA 9 
Y EN EL PUEBLO LE DECIAN LE DECIAN LA LOCA DEL MUELLE DE SAN BLAS 10
Y UNA TARDE DE ABRIL LA INTENTARON TRASLADAR AL MANICOMNIO 11
NADIE LA PUDO ARRANCAR Y DEL MAR NUNCA JAMAS LA SEPARARON 12


                 9                                10
G-------------------------------------I-------------------------------------I
D---44-5-7------------44-5-7--77-5-4-5I---44-5-7----------------4---77-5-4-5I
A-77------------4-7-55----------------I-77------------4-7-55-555------------I
E---------55-555------------33--------I---------55-555------------33--------I
           
                 11                                12
G-------------------------------------I-------------------------------------I
D---44-5-7-----------44-5-7--77-5-4-5-I---44-5-7-----5-4-5--44-5-7--55-0-4-5I
A-77-------------4--------------------I-77----------------------------------I
E---------55-555---22------33---------I---------55-55-----22------33--------I


CORO:

G---------------------------------------------------------------------------I
D---44-5-7---44-5-7---44-5-7------------44-5-7----44-5-7---44-5-7--44-5-7---I
A-55-------44-------22-------44----4--55-------44---------------------------I
E-------------------------------555-5--------------------33------55---------I

PUENTESOLO:

G---------------------------------------------------------------------------I
D---------------------------2*------2*--------------------------2*----------I
A-2-22-0-5*-2-22-0-5*------------------2-22-0-5*-2-22-0-5*------------------I
E---------------------33-22---33-22------------------------33-22?33333/55555I


CORO:

G---------------------------------------------------------------------------I
D---44-5-7---44-5-7---44-5-7------------44-5-7----44-5-7---44-5-7--44-5-7---I
A-55-------44-------22-------44----4--55-------44---------------------------I
E-------------------------------555-5--------------------33------55---------I






G---------------------------------------------------------------------------I
D---44-5-7---44-5-7---44-5-7------------44-5-7----44-5-7---44-5-7--44-5-7---I
A-55-------44-------22-------44----4--55-------44---------------------------I
E-------------------------------555-5--------------------33------55---------I


G----------I
D----------I
A-5***///--I
E----------I

Esta parte es el solo de guitarra cuando empiece la batería parte el bajo con esto:

G------------------I--------------------------------------------------------
D--5555555---------I--------------------------------------------------------
A------------------I?555555555555555-----------------555555555555555--------
E---------55555555-I-----------------333333333333333-----------------3333333

G-------------I-----------------------------------I--------------------------
D---------777-I-----------------------------------I-ESTO SE REPITE HASTA-----
A-------------I--555555555555555------------------I-EL FINAL DE LA CANCION---
E-3333333-----I------------------333333333333333--I--------------------------


ESCUCHEN LA CANCION PRIMERO Y DESPUES LA TOCAN.
OJALA Q LE GUSTE LA CANCIÓN.

Fuente original ATAME [www.atame.org]
Colaborador original: Javier Briceño [javier_bb592@hotmail.com]

Fuente: tusacordes.com