a b c d e f g h i j k l m n o p q r s t u v w x y z 0-9

En El Muelle De San Blas

Mana

			
Esta es una buena rola de Mana , no tiene gran ciencia.
Muy aburrida tocarla porque todo el tiempo se repite lo mismo, 
se le seco el cerebro a Fher mientras la escribia, 
pero no importa aqui está:

Esta parte se toca en los versos:

--------------------------7----------------------------------------5-----------
-------------------8------------8---------------------------5-----------5------
----------------9----9------9----9-----------------------7---7------7----7-----
-------------------------------------------------------------------------------
-----------------------------------------------0-------------------------------
-----0-------------------------------------------------------------------------


-------------------------------5-------------------------3-------2--------                
--------------------5--------------5--------------3---------3--------0----
--------------6----6---------6---6-------------4----4---------------------
------------0-------------------------------------------------------------
--------------------------------------------------------------------------
----------------------------------------3---------------------------------


Esta es la parte del coro:



---------------------0--------------------------------0------------------------0--------
--------------3-------------3--------------------2----------2-------------3-----------3-
----------2-----2------2------2---------------2---2-----2-----2-------2----2-----2----2-
----------------------------------------------------------------------------------------
---0---------------------------------------0-----------------------2--------------------
----------------------------------------------------------------------------------------

y esto se toca despues del coro:


--------------------------------------------------------------------------
-----------3-----2-----3----------------3------2-----3--------------------
--------2-----2-----2-----2---------2------2-----2-----2------------------
--------------------------------------------------------------------------
---2------------------------------0---------------------------------------
--------------------------------------------------------------------------


Fuckin Master
Para no servir a nadie mas que a mi: ariescorp.yahoo.com

Fuente original ATAME [www.atame.org]
Colaborador original: Fuckin Master [ariescorp.yahoo.com]

Fuente: tusacordes.com