a b c d e f g h i j k l m n o p q r s t u v w x y z 0-9

En El Muelle De San Blas

Mana

			
la base de esta cancion es esta

G-------------------------------------------------------
D----4-4-5-7------7-7-5-4-5-----4-4-5-7------4s5-5-4-2-4
A--7--------------------------5-------------------------
E--------------5--------------------------3--------------

asi se va toda la cancion menos en los coros y el final

el coro se va asi

G------------------------------------------------
D----4-5-7----4-5-7----4-5-7--------------4------
A--5--------4--------2--------4----------4------- 
E--------------------------------5-5--7----------
esto tambien es parte del coro

G-------------------------------------------------
D----4-5-7----4-5-7----4-5-4--7----4-4-2-0-2-0-----------
A--5--------4--------------------------------------
E--------------------3-----------5--------------------

despues se toca la base, solo en el ultimo coro hay 
un cambio se empieza a tocar en tal momento esto!

G--------------------------------------------------------
D---------------------------------------------------------
A--5-5-5-5-5--5-5-5-5-------------------------------------
E---------------------5--3-3-3-2-2-2-2s3-3-3-3-3-3-5-5-5-5

aqui acaba la rola!!

solo, hay un pequeño puentesito por ahi que se los dejo 
a su imaginacion, no me he fijado como lo toco!!

Fuente original ATAME [www.atame.org]
Colaborador original: jose labbe [joselabbe@hotmail.com]

Fuente: tusacordes.com