a b c d e f g h i j k l m n o p q r s t u v w x y z 0-9

En El Muelle De San Blas (unplugged)

Mana

			
INTRODUCCIÓN:

Riff Intro

 Em7                  A7               D/F#
|--------0----------|--------0--------|-------------------|
|----3--------3-----|----2--------2---|----------3--------|
|--0---0----0---0---|--0---0----0---0-|-----2---------2---|
|-2-----------------|-----------------|---0---0-----0---0-|
|-------------------|-0---------------|-------------------|
|-------------------|-----------------|-2-----------------|
 G
|---------------2---|
|--------0---0----3-|
|----0--------------|
|------0------------|
|----------0--------|
|--3----------------|


 Em7                  A7               D/F#
|--------0----------|--------0--------|-------------------|
|----3--------3-----|----2--------2---|----------3--------|
|--0---0----0---0---|--0---0----0---0-|-----2---------2---|
|-2-----------------|-----------------|---0---0-----0---0-|
|-------------------|-0---------------|-------------------|
|-------------------|-----------------|-2-----------------|
 G
|---------------2---|
|--------0---0----3-|
|----0--------------|
|------0------------|
|----------0--------|
|--3----------------|


 Em7                  A7               D/F#
|--------0----------|--------0--------|-------------------|
|----3--------3-----|----2--------2---|----------3--------|
|--0---0----0---0---|--0---0----0---0-|-----2---------2---|
|-2-----------------|-----------------|---0---0-----0---0-|
|-------------------|-0---------------|-------------------|
|-------------------|-----------------|-2-----------------|
 G              A
|---------------0----|
|--------0------2----|
|----0----------2----|
|------0--------2----|
|----------0----0----|
|--3-----------------|

INTRODUCCIÓN:

Utilizar Riff Intro
Sola en el olvido?
Sola con su espíritu?
Sola en el olvido?
Sola con su espíritu?

Riff 1

 Em                 A                   D9
|---------7--------|---------5---------|---------5---------|
|-----8--------8---|-----5--------5----|-----5--------5----|
|---9---9----9---9-|---6---6----6---6--|---7---7----7---7--|
|------------------|-------------------|-------------------|
|-7----------------|-------------------|-5-----------------|
|------------------|-5-----------------|-------------------|
 G
|---------3-----2----|
|-----3-----------3--|
|---4---4----4-------|
|--------------------|
|--------------------|
|-3------------------|
Verso 1:

Em                       A               D9                       G
Ella despidió a su amor, él partió en un barco en el muelle de San Blas.
Em                 A                  D9                         G
Él juró que volvería y empapada en llanto, ella juró que esperaría.
Em                A                   D9                    G
Miles de luna pasaron, y siempre ella estaba en el muelle, esperando.
Em                   A                    D9           G
Muchas tardes se anidaron? Se anidaron en su pelo y en sus labios.

Riff 1X2

Verso 2:

Em7                  A7               D/F#                        G
Llevaba el mismo vestido, y por si él volviera no se fuera a equivocar.
Em7                  A7        D/F#                      G
Los cangrejos le mordían su ropaje, su tristeza y su ilusión.
Em7                  A7                D/F#              G
Y del tiempo se escurrió, y sus ojos se le llenaron de amaneceres,
Em7                A7               D/F#           G
y del mar se enamoró, y su cuerpo se enraizó en el muelle?

Riff 2:

 D                  A
|---------2--------|---------0--------|
|-----3--------3---|-----2--------0---|
|---2---2----2---2-|---2---2----2---2-|
|-0----------------|------------------|
|------------------|-0----------------|
|------------------|------------------|

Riff 3:

 G                  A                   D
|---------3--------|---------0--------|-2-----------|
|-----0--------0---|-----2--------0---|-3-----------|
|---0---0----0---0-|---2---2----2---2-|-2-----------|
|------------------|------------------|-0-----------|
|------------------|-0----------------|-------------|
|-3----------------|------------------|-------------|

Coro:

Riff 2
Sola, sola en el olvido.
Riff 2
Sola, sola con su espíritu.
Riff 2
Sola, sola con su amor y el mar.
Riff 3
Sola, en el muelle de San Blas?

Riff 1

Verso 3:

Em                  A                D9                     G
Su cabello se blanqueó, pero ningún barco a su amor le devolvía.
Em                   A             D9
Y en el pueblo le decían? Le decían "La Loca del muelle de San
 G
Blas".
Em7              A7                 D/F#          G
Y una tarde de abril la intentaron trasladar al manicomio;
Em7               A7                 D/F#        G
nadie la pudo arrancar y del mar nunca jamás la separaron.

Coro:

Riff 2
Sola, sola en el olvido.
Riff 2
Sola, sola con su espíritu.
Riff 2
Sola, sola con su amor y el mar.
Riff 3
Sola, en el muelle de San Blas?

Rasgueo:

D - G* - D - G* - D - A - D

Riff 4:

 D                  A
|---------2--------|---------0--------|
|-----3--------3---|-----2------------|
|---2---2----2---2-|---2---2----------|
|-0----------------|------------------|
|------------------|-0----------------|
|------------------|------------------|

Riff 4.1:

 D                  A
|---------2--------|---------0--------|
|-----3--------3---|-----2--------0---|
|---2---2----2---2-|---2---2----2---2-|
|-0----------------|------------------|
|------------------|-0----------------|
|------------------|------------------|

Riff 5:

 G                   A          D
|---------3--------|-----0--0---2--|
|-----0--------0---|----2---2---3--|
|---0---0----0---0-|---2----2---2--|
|------------------|--2-----2---0--|
|------------------|-0------0------|
|-3----------------|---------------|

Riff 4
Sola en el olvido?
Riff 4
Sola con su espíritu.
Riff 4.1
Sola con su amor y el mar? Riff 5

Coro:

Riff 2
Sola, sola en el olvido.
Riff 2
Sola, sola con su espíritu.
Riff 2
Sola, sola con su amor y el mar.
Riff 3
Sola, en el muelle de San Blas?

INTERMEDIO:

 D9           G    G*   D9          G    G*   A              D
|--5----5--|--3----3--|--5----5--|--3----3--|-2--2--2--2--2--2--|
|--5----5--|--3----3--|--5----5--|--3----3--|-2--2--2--2--2--3--|
|--7----6--|--4----0--|--7----6--|--4----0--|-2--2--2--2--2--2--|
|--7----7--|--5----0--|--7----7--|--5----0--|-2--2--2--2--2--0--|
|--5----5--|--5----2--|--5----5--|--5----2--|-0--0--0--0--0--X--|
|--X----X--|--3----3--|--X----X--|--3----3--|-X--X--X--X--X-----|


D*                         G   G*
Se quedó? Se quedó, sola, sola?
D*                                  G     G*
Se quedó? Se quedó con el Sol y con el Mar?
D*
Se quedó ahí? Se quedó hasta el fin?
G                    G*
Se quedó ahí? Se quedó? En el muelle de San Blas?
D*      G   G*
¡Oh, oh, oh!
G*          D*
Sola? Sola? Se quedó?

FINAL:

D - G* - D - G* - D - A - D

 D*           G*
|--5--------|--3---------|
|--7--------|--3---------|
|--7--------|--0---------|
|--7--------|--0---------|
|--5--------|--2---------|
|--5--------|--3---------|




NOTA:
=====
ESTA ES UNA CORRECCIÓN A LAS VERSIONES ANTERIORES. ME HE DEDICADO A
ARREGLAR Y AGREGAR ALGUNAS COSAS QUE HE NOTADO EN VERSIONES ANTERIORES.
Para que esta canción suene igual a su versión Unplugged, se recomienda
utilizar una guitarra acústica de cuerdas dobles 12 cuerdas; aunque,
evidentemente, se puede interpretar también utilizando una guitarra
acústica y/o criolla común.
En el INTERMEDIO, SE DEBE PRESTAR MUCHA ATENCIÓN A LOS CAMBIOS DEL D9 Y
AL RASGUEO DE LOS ACORDES PARA QUE SUENE PARECIDO.

Fuente: tusacordes.com