a b c d e f g h i j k l m n o p q r s t u v w x y z 0-9

En El Muelle De San Blas (unplugged)

Mana

			
Esta es una version exelente de la intro, toquenla y veran.

RECOMENDACIONES: escuchar la cancion mientras tocas, asi le pones ganas al tocar.. jeje 
Intro: Guitarra 1 toca la primera vez lo suyo, y depues se une con la guitarra 1... 
cada una toca sus veces respectivos. 
Guitarra 1: 
E---------0-------------------0-------------------------------------------------|
B-----3-------3-----------2-------2---------------3--------------------0--------|
G---0---0---0---0-------0---0---0---0---------2-------2------------0--------2---|
D-2-----------------------------------------0---0---0---0--------0---0---0----4-|
A---------------------0---------------------------------------------------------|
E-----------------------------------------2------------------3------------------| 
E---------0-------------------0-------------------------------------------------|
B-----3-------3-----------2-------2---------------3--------------------0--------|
G---0---0---0---0-------0---0---0---0---------2-------2------------0--------2---|
D-2-----------------------------------------0---0---0---0--------0---0---0----4-|
A---------------------0---------------------------------------------------------|
E-----------------------------------------2------------------3------------------| 
E---------0-------------------0---------------------------------------------0---|
B-----3-------3-----------2-------2---------------3-------------------------2---|
G---0---0---0---0-------0---0---0---0---------2-------2------------0--------2---|
D-2-----------------------------------------0---0---0---0--------0---0------2---|
A---------------------0---------------------------------------------------------|
E-----------------------------------------2------------------3------------------| 
Guitarra 2: x2 y despues termina en la forma que esta mas abajo...
e---------7-------------------5-------------------5------------------3---2------|
B-----8-------8-----------5-------5-----------5-------5----------3---------3----|
G---9---9---9---9-------6---6---6---6-------7---7---7---7------4---4---4--------|
D-------------------------------------------------------------------------------|
A-------------------------------------------------------------------------------|
E-------------------------------------------------------------------------------| 
e---------7-------------------5-------------------5-----------------------------|
B-----8-------8-----------5-------5-----------5-------5----------3--------------|
G---9---9---9---9-------6---6---6---6-------7---7---7---7------4---4------------|
D-------------------------------------------------------------------------------|
A-------------------------------------------------------------------------------|
E-------------------------------------------------------------------------------|

Fuente original ATAME [www.atame.org]
Colaborador original: Einstein02 [einstein02@123mail.cl]

Fuente: tusacordes.com