a b c d e f g h i j k l m n o p q r s t u v w x y z 0-9

En El Muelle De San Blas (unplugged)

Mana

			
 Es mi primera aportación que hago a esta pagina ojala les agrade la puedan tocar no esta difícil 

Saludos a todos en especial mis alumnos 

Nota: no es transcripción es la original de mana y esta en su tono original . 




Bueno empieza la batería y después tocas
[parte  a]
E------------------------7---------------------------------5----------------------------5----------------------
B----------------8--------------8-------------------5------------5---------------5-----------------5-----------
G-------------9-----9---------9----9-------------6-----6------6-----6---------7------7---------7------7--------
D----------------------------------------------------------------------------0---------------------------------
A-------------------------------------------0------------------------------------------------------------------
E------0-------------------------------------------------------------------------------------------------------



E--------------------3--------2------------------------------------------------------------------------------
B------------3--------------------3--------------------------------------------------------------------------
G--------4-----4--------4------------------------------------------------------------------------------------
D------------------------------------------------------------------------------------------------------------
A------------------------------------------------------------------------------------------------------------
E-----3------------------------------------------------------------------------------------------------------

Todo lo que es parte a se repite varias veces y cuando cambia de tonalidad sigue esto
E-----------------------0-----------------------------------------------0-----------------------------------
B-------------3-----------------3---------------------------2------------------2---------------------------
G---------2------2---------2-------2------------------2--------2----------2-------2-------------------------
D----0-------------------------------------------4----------------------------------------------------------
A-----------------------------------------------------------------------------------------------------------
E-----------------------------------------------------------------------------------------------------------



E-----------------------0-----------------------------------------------0-----------------------------------
B-------------3-----------------3---------------------------2------------------2---------------------------
G---------2------2---------2-------2------------------2--------2----------2-------2-------------------------
D------------------------------------------------4----------------------------------------------------------
A----2------------------------------------------------------------------------------------------------------
E-----------------------------------------------------------------------------------------------------------


E-----------------------0-----------------------------------------------0-----------------------------------
B-------------3-----------------3---------------------------2-------------------2---------------------------
G---------2------2---------2-------2------------------2--------2----------2-------2-------------------------
D----0-------------------------------------------4----------------------------------------------------------
A-----------------------------------------------------------------------------------------------------------
E-----------------------------------------------------------------------------------------------------------

E--------------------------3------------------------------------------------------------0-------------------
B--------------3-------------------3----------------------------3----------2--------------------------------
G----------0-------0----------0------0-------------------2----------2---------2-----------------------------
D-----------------------------------------------------------------------------------------------------------
A-----------------------------------------------------0-----------------------------------------------------
E----3------------------------------------------------------------------------------------------------------

 Después se para y repites la parte a   


Y cuando cambia de figura es esto
[parte b]
E-----------------------0-----------------------------------------------0-----------------------------------
B-------------3----------------3---------------------------2-------------------2----------------------------
G---------2------2---------2-------2------------------2--------2----------2-------2-------------------------
D----0------------------------------------------------------------------------------------------------------
A--------------------------------------------------4--------------------------------------------------------
E-----------------------------------------------------------------------------------------------------------

E-----------------------0-----------------------------------------------0-----------------------------------
B-------------3----------------3---------------------------2-------------------2----------------------------
G---------2------2---------2-------2------------------2--------2----------2-------2-------------------------
D-----------------------------------------------------------------------------------------------------------
A----2------------------------------------------4-----------------------------------------------------------
E-----------------------------------------------------------------------------------------------------------

E-----------------------0-----------------------------------------------0-----------------------------------
B-------------3-----------------3---------------------------2-------------------2---------------------------
G---------2------2---------2-------2------------------2--------2----------2-------2-------------------------
D----0------------------------------------------------------------------------------------------------------
A------------------------------------------------4----------------------------------------------------------
E-----------------------------------------------------------------------------------------------------------

E--------------------------3------------------------------------------------------------0-------------------
B--------------3------------------3----------------------------3----------2--------------------------------
G----------0-------0----------0------0-------------------2----------2---------2-----------------------------
D-----------------------------------------------------------------------------------------------------------
A-----------------------------------------------------0-----------------------------------------------------
E----3------------------------------------------------------------------------------------------------------


Vuelve a cambiar de figura y ahora hace esto




E--------------------------------------2---------------------------------------------2---------------------
B--------------3-----------2-----------------2------------------3-----------2-----------2------------------
G----------------------------------------------------------------------------------------------------------
D---------4---------4-----------4------------------------4-----------4-------------------------------------
A----------------------------------------------------------------------------------------------------------
E----------------------------------------------------------------------------------------------------------



E----------3--------2-----------0-------------------------3---------2--------------------------------------
B-----0-------0----------0------------3-------------0----------0---------0------3--------------------------
G-------------------------------------4-------------------------------------------4------------------------
D----------------------------------------------------------------------------------------------------------
A----------------------------------------------------------------------------------------------------------
E----------------------------------------------------------------------------------------------------------



E-------------------------------------2---------------------------------------------2----------------------
B--------------3-----------2----------2------2------------------3----------2------2----2-------------------
G----------------------------------------------------------------------------------------------------------
D---------4---------4-----------4------------------------4-----------4-------------------------------------
A----------------------------------------------------------------------------------------------------------
E----------------------------------------------------------------------------------------------------------




E--------------0-------------------------------------------------5---5---5---5---5---5---5-----------------
B----------------------------3--------------4--------------------5---5---5---5---5---5---5-----------------
G-------2-------------2-------------2---------------2------------7---7---7---7---7---7---7-----------------
D----------------------------------------------------------------7---7---7---7---7---7---7-----------------
A----------------------------------------------------------------5---5---5---5---5---5---5-----------------
E----------------------------------------------------------------------------------------------------------



Repites la parte b  2 veces  y eso es todo 

Primero escuchen la canción  y vallan sacando poco a poco todo  
por que sinceramente  creo que pueden tener problemitas sobre 
el orden. Bueno eso es todo lo de la guitarra líder  ojala les 
haya gusta para cualquier duda aclaración  escríbanme a mi 
correo  y échenle ganas 

Fuente original ATAME [www.atame.org]
Colaborador original: Roberto [Masterguitar_01hotmail.com]

Fuente: tusacordes.com