a b c d e f g h i j k l m n o p q r s t u v w x y z 0-9

En El Muelle De San Blas(unplugged)

Mana

			
Intro:
      Em7          A7               D/F#             G
e|---------0---------------0--------------------------------------2---
B|-----3-------0-------2-------0-----------3-----------------0------3-
G|---0---0---3---3---0---0---2---2------2-------0------0---0----------
D|-2----------------------------------0---0---2---2------0-----0------
A|-----------------0--------------------------------------------------
e|---------------------------------2----------------3-----------------


          Sola en el olvido               sola con su espíritu
e|---------0---------------0--------------------------------------2---
B|-----3-------0-------2-------0-----------3-----------------0------3-
G|---0---0---3---3---0---0---2---2------2-------0--------0------------
D|-2----------------------------------0---0---2---2----0---0----0-----
A|-----------------0--------------------------------------------------
e|---------------------------------2----------------3-----------------


          Sola en el olvido               sola con su espíritu
e|---------0---------------0---------------------------------0--------
B|-----3-------0-------2-------0-----------3-----------------2------
G|---0---0---3---3---0---0---2---2------2-------0-------0----2-------
D|-2----------------------------------0---0---2---2---0---0--2--------
A|-----------------0-----------------------------------------0--------
e|---------------------------------2----------------3--------0--------


Batería 
Y luego esto: 

       Em                 A         D                G
e|---------7---------------5----------------5--------------3---2---|
b|-----8------8--------5-------5--------5-------7-------3--------3-|
g|---9---9---9--9----6---6---6---6----7---7---5---5---4--4---4-----|
d|-----------------------------------------------------------------|
a|-7-------------------------------5-------------------------------|
E|-----------------5--------------------------------3--------------|

Aki ya va el Bajo con los versos? y el arpegio también va con algunos versos no con todos
       Em                 A         D                G
e|---------7---------------5----------------5--------------3---2---|
b|-----8------8--------5-------5--------5-------7-------3--------3-|
g|---9---9---9--9----6---6---6---6----7---7---5---5---4--4---4-----|
d|-----------------------------------------------------------------|
a|-7-------------------------------5-------------------------------|
E|-----------------5--------------------------------3--------------|

Em                 A                      D                       G
Ela despidió a su amor, el partió en un barco en el muelle de san Blas
Em                 A                D                   G
El juro que volvería y empapada en llanto ella juro que esperaría
Em                 A		   	  D		      G
miles de lunas pasaron, y siempre ella estaba en el muelle esperando
Em                 A                         D              G
muchas tardes se anidaron, se anidaron en su pelo y en sus labios.


       

          
 Em                 A         D                G
Uhhhhhhhh                  Uhhhhhhhhhhhhhhhhhhhhh  
e|---------7---------------5----------------5--------------3---2---|
b|-----8------8--------5-------5--------5-------7-------3--------3-|
g|---9---9---9--9----6---6---6---6----7---7---5---5---4--4---4-----|
d|-----------------------------------------------------------------|
a|-7-------------------------------5-------------------------------|
E|-----------------5--------------------------------3--------------|


       Em                 A         D                G
                           Uhhhhhhhhhhhhhhhhhhhhhh  
e|---------7---------------5----------------5--------------3---2---|
b|-----8------8--------5-------5--------5-------7-------3--------3-|
g|---9---9---9--9----6---6---6---6----7---7---5---5---4--4---4-----|
d|-----------------------------------------------------------------|
a|-7-------------------------------5-------------------------------|
E|-----------------5--------------------------------3--------------|

Ahora empieza este arpeggio
      Em7          A7               D/F#             G
e|---------0---------------0--------------------------------------2---
B|-----3-------0-------2-------0-----------3-----------------0------3-
G|---0---0---3---3---0---0---2---2------2-------0------0---0----------
D|-2----------------------------------0---0---2---2------0-----0------
A|-----------------0--------------------------------------------------
e|---------------------------------2----------------3-----------------

Em7                A7                D/F#                    G
llevaba el mismo vestido y por si el volviera no se fuera a equivocar 
Em7                 A7          D/F#      		G
los cangrejos le mordían, su ropaje, su tristeza y su ilusión
Em7                 A7          D/F#      		G
y del tiempo se escurrió , y sus ojos se le llenaron de amaneceres
Em7                 A7          D/F#      	G
y del mar se enamoro, y su cuerpo se enraizó en el muelle

Coro:
D                                          A                           D                                   A
sola       sola en el olvido                sola con su espíritu
e|---------2----------------0----------------2----------------0-------
B|-----3-------2--------2-------2--------3-------3--------2-------2---
G|---2---2---3--3-----2---2---2---2----2---2---2---2----2---2---2---2-
D|0----------------------------------0--------------------------------
A|------------------0---------------------------------0---------------
e|--------------------------------------------------------------------
	        D
D                                            A                          G	En el muelle
sola       sola con su amor el mar     solaaaaaaaaa        de san Blas
e|---------2----------------0-----------------3-----------0------2----
B|-----3-------2--------2-------2----------0-----0------2-----2?-3----
G|---2---2---3--3-----2---2---2---2-------0-0---0-0---2--2---2-2-2----
D|0--------------------------------------------------------------0----
A|------------------0-------------------------------0-----------------
e|-------------------------------------3------------------------------



Batería : 

1 solo y le sigues 
e|---------7---------------5----------------5--------------3---2---|
b|-----8------8--------5-------5--------5-------7-------3--------3-|
g|---9---9---9--9----6---6---6---6----7---7---5---5---4--4---4-----|
d|-----------------------------------------------------------------|
a|-7-------------------------------5-------------------------------|
E|-----------------5--------------------------------3--------------|
Em             A                    D                G
 Su cabello se blanqueo pero ningún barco a su amor le devolvía
Em                A         D                    G
Y en el pueblo le decían, le decían la loca del muelle de San Blas
      Em7          A7               D/F#             G
e|---------0---------------0--------------------------------------2---
B|-----3-------0-------2-------0-----------3-----------------0------3-
G|---0---0---3---3---0---0---2---2------2-------0------0---0----------
D|-2----------------------------------0---0---2---2------0-----0------
A|-----------------0--------------------------------------------------
e|---------------------------------2----------------3-----------------
Em7            A7            D/F#                 G 
Y una tarde de abril la intentaron  trasladar al manicomio
Em7            A7           D/F#                G
Nadie la pudo atrapar y del mar nunca jamás la separaron


Coro:
D                                          A                           D                                   A
sola       sola en el olvido                sola con su espíritu
e|---------2----------------0----------------2----------------0-------
B|-----3-------2--------2-------2--------3-------3--------2-------2---
G|---2---2---3--3-----2---2---2---2----2---2---2---2----2---2---2---2-
D|0----------------------------------0--------------------------------
A|------------------0---------------------------------0---------------
e|--------------------------------------------------------------------
	        D
D                                            A                          G	En el muelle     
sola       sola con su amor el mar     solaaaaaaaaa        de san Blas
e|---------2----------------0-----------------3-----------0------2---- 
B|-----3-------2--------2-------2----------0-----0------2-----2?-3----
G|---2---2---3--3-----2---2---2---2-------0-0---0-0---2--2---2-2-2----
D|0--------------------------------------------------------------0----
A|------------------0-------------------------------0-----------------
e|-------------------------------------3------------------------------

Rasgueo
      
D A G A D


           sola en el olvido    
e|----------2-----------------0-|
B|------3--------3--------2-----|
G|----2---2----2---2-----2--2---|
D|-0----------------------------|
A|--------------------0---------|
E|------------------------------|


           Sola con su espíritu 
e|----------2-----------------0-|
B|------3--------3--------2-----|
G|----2---2----2---2-----2--2---|
D|-0----------------------------|
A|--------------------0---------|
E|------------------------------|

                     Sola con su amor el mar
e|----------2-----------------0-|
B|------3--------3--------2-----|
G|----2---2----2---2-----2--2---|
D|-0----------------------------|
A|--------------------0---------|
E|------------------------------|

Coro:
D                                          A                           D                                   A
sola       sola en el olvido                sola con su espíritu
e|---------2----------------0----------------2----------------0-------
B|-----3-------2--------2-------2--------3-------3--------2-------2---
G|---2---2---3--3-----2---2---2---2----2---2---2---2----2---2---2---2-
D|0----------------------------------0--------------------------------
A|------------------0---------------------------------0---------------
e|--------------------------------------------------------------------
	       
D                                           A                    D      G	En el muelle     
sola       sola con su amor el mar     solaaaaaaaaa        de san Blas
e|---------2----------------0-----------------3-----------0------2---- 
B|-----3-------2--------2-------2----------0-----0------2-----2?-3----
G|---2---2---3--3-----2---2---2---2-------0-0---0-0---2--2---2-2-2----
D|0--------------------------------------------------------------0----
A|------------------0-------------------------------0-----------------
e|-------------------------------------3------------------------------

Rasgueo
   D9  G   G*  D9  G   G   A
e|-5---3---3---5---3---3---0--|
B|-5---3---3---5---3---3---2--|
G|-7---4---0---7---4---0---2--|
D|-7---5---0---7---5---0---2--|
A|-5---5---2---5---5---2---0--|
E|-5---3---3---5---3---3---X--| 

D                          G	  G*
Se quedo, se quedo ,sola , sola
D                                      G	  G*
Se quedo, se quedo con el sol y con el mar

Empieza a hacer el riff
D          
Se quedo ahí , se quedo hasta el fin 
G                     G*               D
Se quedo ahí, se quedo en el muelle de San Blas
G           G*          D        G  G*
Oh no no no , sola sola se quedo

Se termina con la bateria y ya finnnnnnnnnnnnnnn

Fuente: tusacordes.com