a b c d e f g h i j k l m n o p q r s t u v w x y z 0-9

El Viento En La Isla

Mana

			
Tab. por Armando Juárez Cruz  26/07/03 
      
Pablo Neruda
EL viento es un caballo:
óyelo cómo corre
por el mar, por el cielo.

Quiere llevarme: escucha 
cómo recorre el mundo 
para llevarme lejos.

Escóndeme en tus brazos 
por esta noche sola, 
mientras la lluvia rompe 
contra el mar y la tierra 
su boca innumerable.

Escucha cómo el viento 
me llama galopando 
para llevarme lejos.

Con tu frente en mi frente, 
con tu boca en mi boca, 
atados nuestros cuerpos 
al amor que nos quema, 
deja que el viento pase 
sin que pueda llevarme.

Deja que el viento corra 
coronado de espuma, 
que me llame y me busque
galopando en la sombra, 
mientras yo, sumergido 
bajo tus grandes ojos, 
por esta noche sola 
descansaré, amor mío...


INTRO x4

e ---------------0-----------------------
b --3---3---3---------3---3-3----1-0-----
g ----0---0---0-----0---2--2-2-----------
D ---------------------------------------
A --------------------------------------- REPETIR
E --3-----------------2------------------
 
e -------------------------------------------------------
B -------------------------------------------------------
G -------------------------------------------------------
D -12~-14-12----7-10-9-9---7-10-9h10p9-7--4-5------------
A -------------------------------------------------------
E -------------------------------------------------------



e ---------------------------------------------------------------------
B --------------------------0---1---0------------------------3---1-----
G -0---0---0---0---2---2----------0-----0---0---0---2---2------2---2---
D ---0---0---0---0---0---0----0-------0---0---0---0---0---0------------
A ---------------------------------------------------------------------
E ---------------------------------------------------------------------

e ---------------------------------------------------------------------
B 0---0---1---3---3---0--------1----0---0---0---0---0---0---1---3---1--
G --0---0---0---0------------2---2----0---0---0---0---0---0---0---0---0
D ------------------0---0--1-------------------------------------------
A ---------------------------------------------------------------------
E ---------------------------------------------------------------------

e ---------------------0---1---0-----------------------3---1---0---0---1---3---3-------
B 1---1---0---3---3----------------1---1---1---3---3-----3---3---0---0---0---0-----3---
G --0---0--0----0---0----0---0---0---0---0---0---0---0---------------------------0---0-
D -------------------------------------------------------------------------------------
A -------------------------------------------------------------------------------------
E -------------------------------------------------------------------------------------

e -----------------------------------------------------------------------------------
B -----5----1---1---1---1---1---1---1---1---1---1---1---1---1---1---1---1---3---3---3
G ---4---4----0---0---0---0---0---0---0---0---0---0---0---0---0---0---0---0---0---0--
D -----------------------------------------------------------------------------------
A 0----------------------------------------------------------------------------------
E ----------2---------------3---------------2---------------3------------------------

e ------------------------------|---------------------------------------------0---|
B -1-0-1-1---1---1---1---1---3--|-1---1---1---1---1---1---3---3---0---0---3-------|
G ---------0---0---0---0---0---2|---0---0---0---0---0---0---2---2---1---1---1---1-|
D ------------------------------|-------------------------0-----------------------|
A ------------------------------|-------------------------------------------------|
E ------------------------------|-2-------3-------2---------------0---------------| Repetir mientras 
                                                                                    se toca el final


FINAL
e -----------------------------------------------8-8------------------
B -----------------------------------------------------5p3------------
G -------------------------------------------5/9-----------5-5p4------
D 10-12-14--10-12-14-15-14h15p14---9p7-6-------------------------7p6-7
A --------------------------------------------------------------------
E --------------------------------------------------------------------

e --------------------------------------------------------------------
B -----3------------------10-10---12-12-13---13-12--10-9--------------
G -4-5---5-4/5/4-----------9--9---12-12-12---12-12--10-9--9~----------
D ---------------7-6--------------------------------------------------
A --------------------------------------------------------------------
E --------------------------------------------------------------------

e --------------------------------------------------------------------
B -10-10--12-15-13--12/13-12--10-9------------------------------------
G --9--9--12-14-12--12--------10-9-9~---------------------------------
D --------------------------------------------------------------------
A --------------------------------------------------------------------
E --------------------------------------------------------------------

e --------------------------------------------------------------------
B -----3------------------10-10---12-12-13---13-12--10-9--------------
G -4-5---5-4/5/4-----------9--9---12-12-12---12-12--10-9--9~----------
D ---------------7-6--------------------------------------------------
A --------------------------------------------------------------------
E --------------------------------------------------------------------

e --------------------------------------------------------------------
B -10-10--12-15-13--12/13-12--10-9------------------------------------
G --9--9--12-14-12--12--------10-9-9~---------------------------------
D --------------------------------------------------------------------
A --------------------------------------------------------------------
E --------------------------------------------------------------------

LE DEDICO ESTE POEMA A VIOLETA. 
RECUERDA QUE TE AMO VIOLETA Y QUE SIEMPRE TENDRAS MI APOYO EN TODO LO QUE HAGAS,
NO LO OVIDES NUNCA                                                                
      
                                                                          
   \_     \_ \_   \_\_\_\_   \_        \_\_\_\_  \_\_ \_\_  \_\_\_\_      
    \_    \_  \_   \_    \_   \_        \_           \_      \_    \_     
     \_   \_   \_   \_    \_   \_        \_\_\_\_     \_      \_\_\_\_    
      \_  \_    \_   \_    \_   \_        \_           \_      \_    \_     
       \_ \_     \_   \_    \_   \_        \_           \_      \_    \_    
         \_       \_   \_\_\_\_   \_\_\_\_  \_\_\_\_     \_      \_    \_   

					
						Always keep 
						your head up

Fuente original ATAME [www.atame.org]
Colaborador original: Armando Juárez Cruz [armantaz@hotmail.com]

Fuente: tusacordes.com