a b c d e f g h i j k l m n o p q r s t u v w x y z 0-9

El Verdadero Amor Perdona

Mana

			
Intro:

e.-------------------------------------------------------
B.-------------------------------------------------------
G.-------------------------------------------------------
D.-8----------------------------------------------9--8---
A.----6-----6-8-9-8--------------9--------9---11-------9--
E.------------------6-----6-7-9------7-------------------


e.-------------------------------------------------------
B.-------------------------------------------------------
G.-------------------------------------------------------
D.-------------------------------------------------------
A.--8----6h8h6----4--6--8--------------------------------
E.-------------------------------------------------------

tienes todos los espacios D.-------------------
                          A.-----------9-------
                          E.-----6-7-9---------

inundados de tu ausencia  D.---------------------------------
                          A.--8----6h8h6----4--6--8----------
                          E.---------------------------------

inundados de silencio  D.-------------------
                       A.-----------9-------
                       E.-----6-7-9---------

no hay palabras, no hay perdon D.---------------------------------
                               A.--8----6h8h6----4--6--8----------
                               E.---------------------------------
tu me tienes olvidado  D.-------------------
                       A.-----------9-------
                       E.-----6-7-9---------

no respondes al llamado   D.---------------------------------
                          A.--8----6h8h6----4--6--8----------
                          E.---------------------------------

D                       A#m
   no eches tierra a la palabra
                           B
me condenas a la nada
                             C#
no me entierres sin perdon

D                               A#m
   Mira corazón que es el engaño
                            B
se revierte y hace daño
                          F#
se revienta en el aire
                           C#
como pompas de jabon.

D                        A#m
Como pude haberte yo herido
                           B
engañarte y ofendido
                           F#
alma gemela no te olvido
                           C#
aunque me arranque el corazón

B          C#             F#
Haaay!!! el rencor que nos envenena
        D     F#
nos hace daño
B                           C#
aunque no regreses corazón
          F#
has de perdonarme

F#                         B
El verdadero amor perdona
  F#                   F#2
no abandona, no se quiebra
   D                B
no aprisiona, no revienta
                          C#
como pompas de jabon

e.-------------------------------------------------------
B.-------------------------------------------------------
G.-------------------------------------------------------
D.-8----------------------------------------------9--8---
A.----6-----6-8-9-8--------------9--------9---11-------9--
E.------------------6-----6-7-9------7-------------------


e.-------------------------------------------------------
B.-------------------------------------------------------
G.-------------------------------------------------------
D.-------------------------------------------------------
A.--8----6h8h6----4--6--8--------------------------------
E.-------------------------------------------------------

D                A#m
Un error es algo humano
B               F#
no justifico la traicion
D,,                 A#m
los amantes verdaderos
                B
se comprenden,se aman
    F#
y se olvidan del rencor

 D.--------------------------
 A.----9----9h8h9----6--8--9-
 E.-9------------------------
   D               A#m
La noche empieza a amotinarse
   B               F#
de sueños rotos y el dolor
   D                A#m
y me revuelco en la cama
               B               F#
aferrandome a la nada
          F#
implorando tu perdon

D                          A#m
Mira corazón cuanto te extraño
                         B
pasan dias, pasan años
                       F#
y mi vida se revienta
                       C#
como pompas de jabon

D                         A#m
Como pude haberte yo herido
                           B
engañarte y ofendido
                           F#
alma gemela no te olvido
                           C#
aunque me arranque el corazón


B          C#             F#
Haaay!!! el rencor que nos envenena
        D    F#
nos hace daño
B                           C#
aunque no regreses corazón
          F#
has de perdonarme

F#                         B
El verdadero amor perdona
   F#                  F#2
no abandona, no se quiebra
   D               B
no aprisiona, no revienta
                          C#
como pompas de jabon

e.-------------------------------------------------------
B.-------------------------------------------------------
G.-------------------------------------------------------
D.-8----------------------------------------------9--8---
A.----6-----6-8-9-8--------------9--------9---11-------9--
E.------------------6-----6-7-9------7-------------------

e.-------------------------------------------------------
B.-------------------------------------------------------
G.-------------------------------------------------------
D.-------------------------------------------------------
A.--8----6h8h6----4--6--8--------------------------------
E.-------------------------------------------------------

El verdadero amor perdona D.-------------------
                          A.-----------9-------
                          E.-----6-7-9---------

El verdadero amor perdona D.---------------------------------
                          A.--8----6h8h6----4--6--8----------
                          E.---------------------------------

Si el amor es verdadero  D.-------------------
                         A.-----------9-------
                         E.-----6-7-9---------

no se quiebra, no abandona D.---------------------------------
                           A.--8----6h8h6----4--6--8----------
                           E.---------------------------------

El verdadero amor perdona D.-------------------
                          A.-----------9-------
                          E.-----6-7-9---------

El verdadero amor perdona D.---------------------------------
                          A.--8----6h8h6----4--6--8----------
                          E.---------------------------------

Si el amor es verdadero  D.-------------------
                         A.-----------9-------
                         E.-----6-7-9---------

no se quiebra, no abandona D.---------------------------------
                           A.--8----6h8h6----4--6--8----------
                           E.---------------------------------

Si el amor es verdadero  D.-------------9-------
                         A.-------------9-------
                         E.-----6-7-9-----------

no se quiebra, no abandona

Fuente: Tusacordes