a b c d e f g h i j k l m n o p q r s t u v w x y z 0-9

El Verdadero Amor Perdona

Mana

			
e|---------------------|----------------------|
b|---------------------|----------------------|
g|---------------------|----------------------|
D|--8---8---8------8---|----------------------|
A|----6---6---6?8----9-|--8---8---8----8------|
E|---------------------|----6---6---6-7----9--|

e|---------------------|----------------------|
b|---------------------|----------------------|
g|---------------------|--6---6---6------6----|
D|--4---4---4------4---|----4---4---4--6---8--|
A|----2---2---2?4----6-|----------------------|
E|---------------------|----------------------|

Tienes todos los espacios

e|---------------------|-------------------------|
b|---------------------|-------------------------|
g|---------------------|-------------------------|
D|--8---8---8------8---|-------------------------|
A|----6---6---6?8----9-|--8---8---8------8-------|
E|---------------------|----6---6---6-7-----9----|

Inundados de tu ausencia

e|---------------------|----------------------|
b|---------------------|----------------------|
g|---------------------|--6---6---6------6----|
D|--4---4---4------4---|----4---4---4--6---8--|
A|----2---2---2?4----6-|----------------------|
E|---------------------|----------------------|

Inundados de silencio

e|---------------------|--------------------------|
b|---------------------|--------------------------|
g|---------------------|--------------------------|
D|--8---8---8------8---|--------------------------|
A|----6---6---6?8----9-|--8---8---8-------8-------|
E|---------------------|----6---6------7-----9----|






No hay palabras no hay perdón

e|---------------------|---------------------------|
b|---------------------|---------------------------|
g|---------------------|--6---6---6----------------|
D|--4---4---4------4---|----4---4----6/8--6--4--6--|
A|----2---2---2?4----6-|---------------------------|
E|---------------------|---------------------------|

Se oye un slide que es b|--2/11b--|

D#m                A#m
Tu me tienes olvidado

e|---------------------|------------------------|
b|---------------------|------------------------|
g|---------------------|------------------------|
D|--8---8---8------8---|------------------------|
A|----6---6---6?8----9-|--8---8---8-----8-------|
E|---------------------|----6---6---6-7----9----|

B                    F#
No respondes al llamado

e|---------------------|----------------------|
b|---------------------|----------------------|
g|---------------------|--6---6---6------6----|
D|--4---4---4------4---|----4---4---4--6---8--|
A|----2---2---2?4----6-|----------------------|
E|---------------------|----------------------|

D#m                         A#m
No heches tierra a la palabra

e|---------------------|--------------------------|
b|---------------------|--------------------------|
g|---------------------|--------------------------|
D|--8---8---8------8---|--------------------------|
A|----6---6---6?8----9-|--8---8---8-------8-------|
E|---------------------|----6---6---6--7-----9----|

B                                              C#
Me condenas a la nada, no me entierres sin perdón.

e|---------------------|--------------------------|
b|---------------------|--------------------------|
g|---------------------|--------------------------|
D|--4---4---4-----4----|--9-9--8--9--6--9---9---9-|
A|----2---2---2?4---6--|------------------9---8---|
E|---------------------|--------------------------|
D#m                       A#m
Mira corazón que es el engaño


e|------------6---|---------------9--|
b|---------7------|-----------11-----|
g|------8---------|-------10---------|
D|----------------|----8-------------|
A|--6-------------|------------------|
E|----------------|------------------|

                    B                   F#m
Se revierte y hace daño, se revienta en el aire

e|-------------11--|--------------9---------|
b|---------12------|----------11-----11-----|
g|-----11----------|------11-----------11---|
D|--9--------------|------------------------|
A|-----------------|--9---------------------|
E|-----------------|------------------------|

                  A#m
Como pompas de jabón

e|--------------9---|
b|---------11-------|
g|-----10-----------|
D|--8---------------|
A|------------------|
E|------------------|

D#m                     A#m
Como pude haberte yo herido

e|------------6---|---------------9--|
b|---------7------|-----------11-----|
g|------8---------|-------10---------|
D|----------------|----8-------------|
A|--6-------------|------------------|
E|----------------|------------------|
B                                           F#
Engañarte y ofendido? Alma gemela no te olvido

e|-------------11---------|-------------9---|
b|---------12------12-----|---------11------|
g|-----11--------------11-|------11---------|
D|--9---------------------|-----------------|
A|------------------------|--9--------------|
E|------------------------|-----------------|

                           A#m
Aunque me arranque el corazón

e|--------------9---|
b|---------11-------|
g|-----10-----------|
D|--8---------------|
A|------------------|
E|------------------|

PRECORO:

Bsus2      C#7             F#
Ay el rencor que nos envenena

e|--------------|----------------|------------------|
b|---------2----|----------6-----|---------2--------|
g|-----------4--|-------------4--|-------------3----|
D|-----4--------|-----6----------|-----4------------|
A|--2-----------|--4-------------|--4---------------|
E|--------------|----------------|------------------|

           A#m
Nos hace daño

e|----------------|
b|---------2------|
g|------------3---|
D|-----3----------|
A|--1-------------|
E|----------------|

Bsus2    C#                               F#-F#7
Aunque no regreses corazón, has de perdonarme

e|--------------|----------------|------------------|
b|---------2----|----------6-----|---------2--------|
g|-----------4--|-------------6--|-------------3----|
D|-----4--------|-----6----------|-----4------------|
A|--2-----------|--4-------------|--4---------------|
E|--------------|----------------|------------------|

B|--2/11b-----|

CORO

  B
El verdadero amor perdona
       Bm             F#
No abandona, no se quiebra


      D#m
No aprisiona
       B                     C#
No revienta como pompas de jabón.


Intro: D#m A#m B F#

e|---------------------|----------------------|
b|---------------------|----------------------|
g|---------------------|----------------------|
D|--8---8---8------8---|----------------------|
A|----6---6---6?8----9-|--8---8---8----8------|
E|---------------------|----6---6---6-7----9--|

e|---------------------|---------------------------|
b|---------------------|---------------------------|
g|---------------------|--6---6---6----------------|
D|--4---4---4------4---|----4---4----6/8--6--4--6--|
A|----2---2---2?4----6-|---------------------------|
E|---------------------|---------------------------|

D#m                 A#m
Un error es algo humano

B                    F#
No justifico la traición

D#m                              A#m
Los amantes verdaderos se comprenden

e|--18?14----------|---16---------------|
b|---------------16--|---------18---14--|
g|---------------------|----------------------|

B                            F#
Se aman y se olvidan del rencor

e|------------------------|---------------------------|
b|------------------21--|---------------------------|
g|--18---20-----------|--6---6----6--------6------|
D|------------------------|----4---4-----4?6------7---|
A|------------------------|---------------------------|
E|------------------------|---------------------------|

b|--2/11b---|

D#m                          A#m
La noche empieza a amotinarse
e|---------------------|----------------------|
b|---------------------|----------------------|
g|---------------------|----------------------|
D|--8---8---8------8---|----------------------|
A|----6---6---6?8----9-|--8---8---8----8------|
E|---------------------|----6---6---6-7----9--|

B                      F#
De sueños rotos y dolor

e|---------------------|----------------------|
b|---------------------|----------------------|
g|---------------------|--6---6---6------6----|
D|--4---4---4------4---|----4---4---4--6---8--|
A|----2---2---2?4----6-|----------------------|
E|---------------------|----------------------|

D#m                     A#m
Y me revuelco en la cama

e|---------------------|----------------------|
b|---------------------|----------------------|
g|---------------------|----------------------|
D|--8---8---8------8---|----------------------|
A|----6---6---6?8----9-|--8---8---8----8------|
E|---------------------|----6---6---6-7----9--|

B                                       C#
Aferrandome a la nada implorando tu perdón


e|---------------------|--------------------------|
b|---------------------|--------------------------|
g|---------------------|--------------------------|
D|--4---4---4-----4----|--9-9--8--9--6--9---9---9-|
A|----2---2---2?4---6--|------------------9---8---|
E|---------------------|--------------------------|

B|---2/11B---|

D#m                         A#m
Mira corazón cuanto te extraño

e|------------6---|---------------9--|
b|---------7------|-----------11-----|
g|------8---------|-------10---------|
D|----------------|----8-------------|
A|--6-------------|------------------|
E|----------------|------------------|



B                                         F#
Pasan días, pasan años y mi vida se revienta

e|-------------11--|--------------9---------|
b|---------12------|----------11-----11-----|
g|-----11----------|------11-----------11---|
D|--9--------------|------------------------|
A|-----------------|--9---------------------|
E|-----------------|------------------------|

                   A#m
Como pompas de jabón

e|--------------9---|
b|---------11-------|
g|-----10-----------|
D|--8---------------|
A|------------------|
E|------------------|

D#m                      A#m
Como pude haberte yo herido

e|------------6---|---------------9--|
b|---------7------|-----------11-----|
g|------8---------|-------10---------|
D|----------------|----8-------------|
A|--6-------------|------------------|
E|----------------|------------------|

B                                          F#
Engañarte y ofendido alma gemela, no te olvido

e|-------------11---------|-------------9---|
b|---------12------12-----|---------11------|
g|-----11--------------11-|------11---------|
D|--9---------------------|-----------------|
A|------------------------|--9--------------|
E|------------------------|-----------------|

                            A#m
Aunque me arranque el corazón

e|--------------9---|
b|---------11-------|
g|-----10-----------|
D|--8---------------|
A|------------------|
E|------------------|
Bsus2      C#7               F#
Ay el rencor que nos envenena

e|--------------|----------------|------------------|
b|---------2----|----------6-----|---------2--------|
g|-----------4--|-------------4--|-------------3----|
D|-----4--------|-----6----------|-----4------------|
A|--2-----------|--4-------------|--4---------------|
E|--------------|----------------|------------------|

              A#m
Nos hace daño

e|----------------|
b|---------2------|
g|------------3---|
D|-----3----------|
A|--1-------------|
E|----------------|

Bsus2          C#                            F#-F#7
Aunque no regreses corazón, has de perdonarme

e|--------------|----------------|------------------|
b|---------2----|----------6-----|---------2--------|
g|-----------4--|-------------6--|-------------3----|
D|-----4--------|-----6----------|-----4------------|
A|--2-----------|--4-------------|--4---------------|
E|--------------|----------------|------------------|

B|--2/11b-----|

Coro:

  B
El verdadero amor perdona
       Bm             F#
No abandona, no se quiebra
         D#m
No aprisiona
       B                     C#
No revienta como pompas de jabón.

INTRO:

D#m A#m B F#



e|---------------------|----------------------|
b|---------------------|----------------------|
g|---------------------|----------------------|
D|--8---8---8------8---|----------------------|
A|----6---6---6?8----9-|--8---8---8----8------|
E|---------------------|----6---6---6-7----9--|


e|---------------------|---------------------------|
b|---------------------|---------------------------|
g|---------------------|--6---6---6----------------|
D|--4---4---4------4---|----4---4----6/8--6--4--6--|
A|----2---2---2?4----6-|---------------------------|
E|---------------------|---------------------------|

B|--2/11B---|


Final:

D#m                      A#m
El verdadero amor perdona

e|---------------------|----------------------|
b|---------------------|----------------------|
g|---------------------|----------------------|
D|--8---8---8------8---|----------------------|
A|----6---6---6?8----9-|--8---8---8----8------|
E|---------------------|----6---6---6-7----9--|

b|--2/11b---|

B                         F#
El verdadero amor perdona

e|---------------------|---------------------------|
b|---------------------|---------------------------|
g|---------------------|--6---6---6----------------|
D|--4---4---4------4---|----4---4----6/8--6--4--6--|
A|----2---2---2?4----6-|---------------------------|
E|---------------------|---------------------------|

B|--2/11--|

D#m                   A#m
Si el amor es verdadero





e|---------------------|----------------------|
b|---------------------|----------------------|
g|---------------------|----------------------|
D|--8---8---8------8---|----------------------|
A|----6---6---6?8----9-|--8---8---8----8------|
E|---------------------|----6---6---6-7----9--|

b|--2/11b---|

B                       F#
No se quiebra no abandona

e|---------------------|---------------------------|
b|---------------------|---------------------------|
g|---------------------|--6---6---6----------------|
D|--4---4---4------4---|----4---4----6/8--6--4--6--|
A|----2---2---2?4----6-|---------------------------|
E|---------------------|---------------------------|

D#m                   A#m
Si el amor es verdadero
B                       F#
No se quiebra no abandona

Fuente: Tusacordes