a b c d e f g h i j k l m n o p q r s t u v w x y z 0-9

El Verdadero Amor Perdona

Mana

			
Esta el la otra version que canta con Prince Royce
BUENO AQUÍ LES DEJO EL ULTIMO TEMA DE MANA ESTA MUY BUENO ESPERO LES GUSTE.
PORCI TALVES LOS ACORDES ESTAN UN POCO DESUBICADOS PERO TRATEN DE ENCONTRARLE EL SONIDO.

INTRO:
    C          G           Am        Em       F
e-------------------------------------------------------|
B---------------------------------0---------------------|
G--3----------------------------1---3---3-1h3h1---1-3---|
D-----1--1-3-4-3----------4---4-------4---------4-------|
A----------------1--1-2-4---2---------------------------|
E-------------------------------------------------------|
F                C
Tienes todos lo espacios
G                  Am
Inundados de tu ausencia
Em               F
Inundados de silencio
C                    G
No hay palabras no hay perdón
F              C
Tú me tienes olvidado
 G                Am
No respondes al llamado
Em                 F
No eches tierra la palabra
C                G
Te condenas a la nada
Am                   Em
No me entierres sin perdón
F                    C
Mira corazón que es el engaño
                      G
Se revierte y hace daño
  Am
Se revienta en el aire
  Em
Como pompas de jabón

Verso:
G                      D 
Como pude haberte yo herido
     Em
Engañarte y ofendido
                  C  
alma gemela no te olvido
            G
aunque me arranque el corazón
 D        
ayyy el rencor
    Em
que nos envenena
    C
nos hace daño
   G              D
aunque no regreses corazón
      Em       C
vas a perdonarme

Coro:
                     G
El verdadero amor perdona
    D                 Em
No abandona, no se quiebra
   C           Em            C                 G               
No aprisiona, no revienta como pompas de jabon

    C          G           Am        Em       F
e-------------------------------------------------------|
B---------------------------------0---------------------|
G--3----------------------------1---3---3-1h3h1---1-3---|
D-----1--1-3-4-3----------4---4-------4---------4-------|
A----------------1--1-2-4---2---------------------------|
E-------------------------------------------------------|


F              C
Un error es algo humano
G                  Am
No justifico la traición
Em               F
Los amantes verdaderos
                                      
      C                              G
Se comprenden, se aman y se olvidan del rencor
  Am                    Em
La noche empieza a amotinarse
F                  C
De sueños rotos y dolor
G                     Am
Y me revuelco en esta cama
            Em
Aferrándome a la nada
        F
Implorando tu perdón
C                        G
Mira corazón cuanto te extraño
         Am
Pasan días pasan años
                     
Em                              F
Y mi vida se revienta como pompas de jabón

Verso:
Verso:
G                      D 
Como pude haberte yo herido
     Em
Engañarte y ofendido
                  C  
alma gemela no te olvido
            G
aunque me arranque el corazón
 D        
ayyy el rencor
    Em
que nos envenena
    C
nos hace daño
   G              D
aunque no regreses corazón
      Em       C
vas a perdonarme

Coro:
                     G
El verdadero amor perdona
    D                 Em
No abandona, no se quiebra
   C           Em            C                 G               
No aprisiona, no revienta como pompas de jabon

    C          G           Am        Em       F
e-------------------------------------------------------|
B---------------------------------0---------------------|
G--3----------------------------1---3---3-1h3h1---1-3---|
D-----1--1-3-4-3----------4---4-------4---------4-------|
A----------------1--1-2-4---2---------------------------|
E-------------------------------------------------------|
G                      D
El verdadero amor perdona
Am                  C
El verdadero amor perdona
Em                G
Si el amor es verdadero
A7                D
No se quiebra no abandona
G                   D
El verdadero amor perdona
Am               C
El verdadero amor perdona
Em                G
Si el amor es verdadero
A7                D
No se quiebra no abandona

Em                 G
Si el amor es verdadero
A7                 D
No se quiebra no abandona

Fuente: Tusacordes