a b c d e f g h i j k l m n o p q r s t u v w x y z 0-9

El Rey

Mana

			
Esta es la conocida cancion mexicana interpretada por el grupo mana.....

es solamente el intro:

E-0--0--3-----0--3--3--0--3--0---|-0--0--3--3--0--3---0-------
B-2--2--5-----2--5--5--2--5--2---|-2--2--5--5--2--5---2-------
G--------------------------------|-----------------------3--2-
D--------------------------------|-----------------------4--2-
A--------------------------------|----------------------------
E--------------------------------|----------------------------


E--------------------------------------
B--2--3---5---2----10--8----7-7-7-7v---
G--2--4---6---2----11--9---7-7-7-7-----
D--------------------------------------
A--------------------------------------
E--------------------------------------



espero que les guste...
saludos...

Fuente: Tusacordes