a b c d e f g h i j k l m n o p q r s t u v w x y z 0-9

El Rey Tiburon

Mana

			
Esta cancion esta facil de tocar 
muy buena cancion 

esto solo es el intro. Esta tablatura  x3 veces

Em----------------------------------------------------------
B ----------------------------------------------------------
G ----------------------------------------------------------
D -----0---1--0--1^---0---1---------------------------------
A -----------------------------3---3-----5------------------
E --3-------------------------------------------------------

Despues seguido de eso                  Esto x 2 veces

Em---------------------------------------------------------
B ---------------------------------------------------------
G ---------------------------------------------------------
D ------0---1---0---1^---0----1----------------------------
A --------------------------------3---3----5---------------
E ---2-----------------------------------------------------


despues seguido de eso devolada tocan esto

Em----------------------------------------------------------
B ----------------------------------------------------------
G --1--1--1--1----3---1--0----------------------------------
D ----------------------------------------------------------
A ----------------------------------------------------------
E ----------------------------------------------------------


y por ultimo
Em-----------------------------
B ---------1-------------------
G --2--3--------3---2--/3------
D -----------------------------
A -----------------------------
E -----------------------------



Fuente: tusacordes.com