a b c d e f g h i j k l m n o p q r s t u v w x y z 0-9

El Espejo

Mana

			
intro : 
e--------------------------------------
B--------------------------------------
G----------7-7-7-7-9-9-9-9-------------  
D--7/9-9-9-7-7-7-7-9-9-9-9-7-7-7-7-----
A--7/9-9-9-5-5-5-5-7-7-7-7-7-7-7-7-----   
E--5/7-7-7-----------------5-5-5-5-----

e--------------------------------------
B--------------------------------------
G----------7-7-7-7-9-9-9-9-------------  
D--7/9-9-9-7-7-7-7-9-9-9-9-7/----------  (aqui hace un slide desde los bajos de A
A--7/9-9-9-5-5-5-5-7-7-7-7-7/----------  hasta los primeros trastes de lo respectivos 
E--5/7-7-7-----------------5/----------   bajos)

Con duda yo pensaba si lo haria,si era vida y de regreso
e--------------------------------------
B-3---2----3--2----5--3--3--2----------
G--4---4----2--2----4--4--4--4---------  x2
D---4---4----4--4-2--2--2--2--2--------
A--------------------------------------
E--------------------------------------

el espejo se detuvo en su reflejo lo tenia que cruzar
e--------------------------------------
B-3---2----3--2----5--3--3--2----------
G--4---4----2--2----4--4--4--4---------  x2
D---4---4----4--4-2--2--2--2--2--------
A--------------------------------------
E--------------------------------------

lo toco con la punta de mi miedo,que se hunde en el mercurio
del cristal
e--------------------------------------
B--------------------------------------
G----------7-7-7-7-9-9-9-9-------------  x2  
D--7/9-9-9-7-7-7-7-9-9-9-9-7-7-7-7-----  guitarra 1 
A--7/9-9-9-5-5-5-5-7-7-7-7-7-7-7-7-----   
E--5/7-7-7-----------------5-5-5-5-----

e--------------------------------------
B--7-7-7-------------------------------
G--------9t7--------------------------- guitarra 2 
D-----------7t9------------------------  tapt:presiona el iguiente traste solo tapandolo con el dedo) 
A--------------------------------------  lo hace cuando repite el riff anterior
E--------------------------------------

lo cruzo y lo dejo a mis espaldas no hay regreso esta fatal 
e--------------------------------------
B--------------------------------------
G----------7-7-7-7-9-9-9-9-------------  
D--7/9-9-9-7-7-7-7-9-9-9-9-7-7-7-7-----
A--7/9-9-9-5-5-5-5-7-7-7-7-7-7-7-7-----   
E--5/7-7-7-----------------5-5-5-5-----

e--------------------------------------
B--------------------------------------
G----------7-7-7-7-9-9-9-9-------------  
D--7/9-9-9-7-7-7-7-9-9-9-9-7/----------  (aqui hace un slide desde los bajos de A
A--7/9-9-9-5-5-5-5-7-7-7-7-7/----------  hasta los primeros trastes de lo respectivos 
E--5/7-7-7-----------------5/----------   bajos) (sonido de orquesta)
                                                 
quede atrapado en un espejo azul 
que voy hacer dios mio estoy perdiendo la razon

coro:

quede atrapado 
e-----------------------------------------
B-----------------------------------------
G-----------------------------------------
D-9-9-9-9/4-4-4-4-4/5-5-5-5-5/7-7-7-7-7---
A-9-9-9-9/4-4-4-4-4/5-5-5-5-5/7-7-7-7-7---
E-7-7-7-7/2-2-2-2-2/3-3-3-3-3/5-5-5-5-5---

quede fundido
e------------------------------------------------------
B------------------------------------------------------
G------------------------------------------------------
D-9-9-9-9/11-11-11-11-11/12-12-12-12-12/14-14-14-14-14-
A-9-9-9-9/11-11-11-11-11/12-12-12-12-12/14-14-14-14-14-
E-7-7-7-7/9--9--9--9--9//10-10-10-10-10/12-12-12-12-12-

en otro tiempo 
e-----------------------------------------
B-----------------------------------------
G-----------------------------------------
D-9-9-9-9/4-4-4-4-4/5-5-5-5-5/7-7-7-7-7---
A-9-9-9-9/4-4-4-4-4/5-5-5-5-5/7-7-7-7-7---
E-7-7-7-7/2-2-2-2-2/3-3-3-3-3/5-5-5-5-5---

en otra dimensiiiiiiiiooooooooooooooon
e------------------------------------------------------
B------------------------------------------------------
G------------------------------------------------------
D-9-9-9-9/11-11-11-11-11/12-12-12-12-12/14-14-14-14-14-
A-9-9-9-9/11-11-11-11-11/12-12-12-12-12/14-14-14-14-14-
E-7-7-7-7/9--9--9--9--9//10-10-10-10-10/12-12-12-12-12-


e---7------7------7-----9-7-----------------
B--7-7-7--7-7-7--8-8-8-8---7----------------
G-------------------------------------------
D-9------9------9-----9---------------------
A-------------------------------------------
E-------------------------------------------

voy caminando por el hall de un monasterio medieval
e---7------7------7-----9-7-----------------
B--7-7-7--7-7-7--8-8-8-8---7----------------
G------------------------------------------- x2
D-9------9------9-----9---------------------  guitarra 1 
A-------------------------------------------
E-------------------------------------------

e-----------------------------------------------
B----------------------------------------------- guitarra 2
G----------------------7------------------------ esto lo hace cuando repite el riff a
D--9-7-9--7-9-7-9-7-9-7---4-2-4--2-4-2-4-2-7-4-- anterior
A--9-7-9--7-9-7-9-7-9-5---4-2-4--2-4-2-4-2-7-4--
E--7-5-7--5-7-5-7-5-7-----2-0-2--0-2-0-2-0-5-2--

el padre aurelio me instruyo (bienvenido pase ya) 
e---7------7------7-----9-7-----------------
B--7-7-7--7-7-7--8-8-8-8---7----------------
G------------------------------------------- x2
D-9------9------9-----9---------------------  guitarra 1 
A-------------------------------------------
E-------------------------------------------

e-----------------------------------------------
B----------------------------------------------- guitarra 2
G----------------------7------------------------ (esto lo hace cuando repite el riff a
D--9-7-9--7-9-7-9-7-9-7---4-2-4--2-4-2-4-2-7-4-- anterior)
A--9-7-9--7-9-7-9-7-9-5---4-2-4--2-4-2-4-2-7-4--
E--7-5-7--5-7-5-7-5-7-----2-0-2--0-2-0-2-0-5-2--

todo lo que vea de usted se lo voy a regalar 
me dijo el cura sin piedad
e--------------------------------------
B--------------------------------------
G----------7-7-7-7-9-9-9-9-------------  x2  
D--7/9-9-9-7-7-7-7-9-9-9-9-7-7-7-7-----  guitarra 1 
A--7/9-9-9-5-5-5-5-7-7-7-7-7-7-7-7-----   
E--5/7-7-7-----------------5-5-5-5-----

e--------------------------------------
B--7-7-7-------------------------------
G--------9t7--------------------------- guitarra 2 
D-----------7t9------------------------  tapt:presiona el iguiente traste solo tapandolo con el dedo) 
A--------------------------------------  lo hace cuando repite el riff anterior
E--------------------------------------

usted pudo llegar hasta aqui y jamas podra escapar

e--------------------------------------
B--------------------------------------
G----------7-7-7-7-9-9-9-9-------------  x2  
D--7/9-9-9-7-7-7-7-9-9-9-9-7-7-7-7-----  guitarra 1 
A--7/9-9-9-5-5-5-5-7-7-7-7-7-7-7-7-----   
E--5/7-7-7-----------------5-5-5-5-----

uoooooooooooooooooooh uoooooooooh
e-------------------------------------------------------
B--------------------7---7-10-8-7-8-7---7---------------
G----6-7-6-7-9-6-7-9--7-9--------9---9-7-9-7-6-9-7-6---- parte rapida
D-9-9---9--------------------------------------------9--
A--9----------------------------------------------------
E-------------------------------------------------------
por que calibraste mal
e------------------------------------------------------
B---------------------------7-8-7---7-----7-7-8-7------
G-------6---6-7-6-7-9-6-7-9------9-7--9-7--9-----9-7-6- rapido
D-8-8-9--8-9---9---------------------------------------
A--9---------------------------------------------------
E------------------------------------------------------
uoooooooooooooooooooh uoooooooooh
e-------------------------------------------------------
B--------------------7---7-10-8-7-8-7---7---------------
G----6-7-6-7-9-6-7-9--7-9--------9---9-7-9-7-6-9-7-6---- parte rapida
D-9-9---9--------------------------------------------9--
A--9----------------------------------------------------
E-------------------------------------------------------
con la vida pagara 
e----------------------------------------------------
B----------------------------------------------------
G-------------------------------------------------9--
D--------------8-9----------------11-8-9-11-8-9-11---
A-7-9-10-7-9-10----10-9-10-9-7------9----------------  orquesta es la que sigue 
E------------------------------10--------------------
quede atrapado en un espejo azul 
que voy hacer dios mio estoy perdiendo la razon 

coro:

quede atrapado 
e-----------------------------------------
B-----------------------------------------
G-----------------------------------------
D-9-9-9-9/4-4-4-4-4/5-5-5-5-5/7-7-7-7-7---
A-9-9-9-9/4-4-4-4-4/5-5-5-5-5/7-7-7-7-7---
E-7-7-7-7/2-2-2-2-2/3-3-3-3-3/5-5-5-5-5---

quede fundido
e------------------------------------------------------
B------------------------------------------------------
G------------------------------------------------------
D-9-9-9-9/11-11-11-11-11/12-12-12-12-12/14-14-14-14-14-
A-9-9-9-9/11-11-11-11-11/12-12-12-12-12/14-14-14-14-14-
E-7-7-7-7/9--9--9--9--9//10-10-10-10-10/12-12-12-12-12-

en otro tiempo 
e-----------------------------------------
B-----------------------------------------
G-----------------------------------------
D-9-9-9-9/4-4-4-4-4/5-5-5-5-5/7-7-7-7-7---
A-9-9-9-9/4-4-4-4-4/5-5-5-5-5/7-7-7-7-7---
E-7-7-7-7/2-2-2-2-2/3-3-3-3-3/5-5-5-5-5---

en otra dimensiiiiiiiiooooooooooooooon
e------------------------------------------------------
B------------------------------------------------------
G------------------------------------------------------
D-9-9-9-9/11-11-11-11-11/12-12-12-12-12/14-14-14-14-14-
A-9-9-9-9/11-11-11-11-11/12-12-12-12-12/14-14-14-14-14-
E-7-7-7-7/9--9--9--9--9//10-10-10-10-10/12-12-12-12-12-

e---------------------------------------
B------3-------2--------3-------5-------
G----4--4----2--4----4---4----2--2------  x2 
D---4-4--4--2-2--2--0-0---0--2-2--4-----
A-2--------4----------------4-----------
E------------------3--------------------
cayendo,huyendo estan equivocados 
e---------------------------------------
B------3-------2--------3-------5-------
G----4--4----2--4----4---4----2--2------ 
D---4-4--4--2-2--2--0-0---0--2-2--4-----
A-2--------4----------------4-----------
E------------------3--------------------
maligno mesquino me grita un fraile bizantino
e---------------------------------------
B------3-------2--------3-------5-------
G----4--4----2--4----4---4----2--2------ 
D---4-4--4--2-2--2--0-0---0--2-2--4-----
A-2--------4----------------4-----------
E------------------3--------------------
y en el rio la jauría de los frailes me seguian 
e---------------------------------------
B------3-------2--------3-------5-------
G----4--4----2--4----4---4----2--2------ 
D---4-4--4--2-2--2--0-0---0--2-2--4-----
A-2--------4----------------4-----------
E------------------3--------------------
me atraparon me golpearon de regreso a la abadía
e---------------------------------------
B------3-------2--------3-------5-------
G----4--4----2--4----4---4----2--2------ 
D---4-4--4--2-2--2--0-0---0--2-2--4-----
A-2--------4----------------4-----------
E------------------3--------------------
y en el patio del convento exorcista  me gritaban
e-----------------------------------------
B-----------------------------------------
G-----------------------------------------
D-9-9-9-9/4-4-4-4-4/5-5-5-5-5/7-7-7-7-7---
A-9-9-9-9/4-4-4-4-4/5-5-5-5-5/7-7-7-7-7---
E-7-7-7-7/2-2-2-2-2/3-3-3-3-3/5-5-5-5-5---
no hay remedio a la hoguera , no lo haga noooooooooooooooooooooo
e------------------------------------------------------
B------------------------------------------------------
G------------------------------------------------------
D-9-9-9-9/11-11-11-11-11/12-12-12-12-12/14-14-14-14-14-
A-9-9-9-9/11-11-11-11-11/12-12-12-12-12/14-14-14-14-14-
E-7-7-7-7/9--9--9--9--9//10-10-10-10-10/12-12-12-12-12-

e------------------------------------------
B---7-8-10------7-8-10--7-8-10---10-8-7----    guitarra 2
G-----------7-9----------------11--9-9-----   con efecto a la guitarra
D--9------9------------9---------------9---
A------------------------------------------
E------------------------------------------
no lo hagan no ,no me maten por piedad
e----------------------------------------
B----------------------------------------
G--------6-6-6-6-7-7-7-7-9-9-9-9---------  
D--9-9-9-6-6-6-6-7-7-7-7-9-9-9-9---------
A--9-9-9-4-4-4-4-5-5-5-5-7-7-7-7---------   
E--7-7-7---------------------------------
no lo hagan no no me maten por piedad
e----------------------------------------
B----------------------------------------
G--------6-6-6-6-7-7-7-7-9-9-9-9---------  
D--9-9-9-6-6-6-6-7-7-7-7-9-9-9-9---------
A--9-9-9-4-4-4-4-5-5-5-5-7-7-7-7---------   
E--7-7-7---------------------------------
no lo hagan no no me maten por favor
e----------------------------------------
B----------------------------------------
G--------6-6-6-6-7-7-7-7-9-9-9-9---------  
D--9-9-9-6-6-6-6-7-7-7-7-9-9-9-9---------
A--9-9-9-4-4-4-4-5-5-5-5-7-7-7-7---------   
E--7-7-7---------------------------------
no lo hagan no no por piedad
e----------------------------------------
B----------------------------------------
G--------6-6-6-6-7-7-7-7-9-9-9-9---------  
D--9-9-9-6-6-6-6-7-7-7-7-9-9-9-9---------
A--9-9-9-4-4-4-4-5-5-5-5-7-7-7-7---------   
E--7-7-7---------------------------------
piedad dios mio
e----------------------------------------
B----------------------------------------
G--------6-6-6-6-7-7-7-7-9-9-9-9---------  
D--9-9-9-6-6-6-6-7-7-7-7-9-9-9-9---------
A--9-9-9-4-4-4-4-5-5-5-5-7-7-7-7---------   
E--7-7-7---------------------------------

Fuente: Tusacordes