a b c d e f g h i j k l m n o p q r s t u v w x y z 0-9

Dejame Entrar

Mana

			
INTRO:
e|------------------------------xx-8-x-7--5---------------------------------xx-8-x-10--5--|
B|------------------------------xx-8-x-7--5---------------------------------xx-8-x-10--5--|
G|------------------------------xx-9-x-8--5---------------------------------xx-9-x-11--5--|FIG 1
D|-7--7--7-7--10-7-10------7--7-------------xx--7--7--7-7--10-7-10------7--7--------------|
A|-7--7--7-7--10-7-10--x-x-7--7-------------xx--7--7--7-7--10-7-10--x-x-7--7--------------|
E|-5--5----------------x-x-5--5-------------xx--5--5----------------x-x-5--5--------------|

Aquí una guitarra hace los acordes y otra entra con un efecto WAH, pero no tengo idea de como sea

VERSO 1: 
Am               
 Dejame entrar en la alberca de tus ojos
G
 Dejame entrar en la alberca de tu ombligo
D                  DDDD             Am   FIG 1
 Yo no te obligo nena    Dejame entrar 

VERSO 2: 
Am
 Dejame entrar en toditos tus rincones
G
 Dejame entrar en toditas tus pasiones
D                      DDDD            Am   FIG 1 X2
 Dejame entrar a tu alma    Dejame entrar

VERSO 3:
Am          
 Quiero vivir en tus mundos ser tu dueño
G
 Quiero vivir en la casa de tus sueños
D                     DDDD            Am    FIG 1
 Yo quiero todo contigo    Dejame entrar

VERSO 4:
Am
 Dicen que soy un hippie indecente
G
 No me importa lo que diga la gente
D                  DDDD           Am    FIG 1
 Solo me importas tú   Dejame entrar


CORO:
e|-------------------------------------------------------------------------|
B|----------------------------------0-----------------------------------0--|
G|--2-2--2-2-0-2-------2-2--2-2-0-2------2-2--2-2-0-2------2-2--2-2-0-2----|FIG 2
D|---------------2------------------------------------2--------------------|
A|-------------------------------------------------------------------------|
E|-------------------------------------------------------------------------|

FIG 2
 Deja clavarme ya en la alberca de tus ojos
FIG 2
 Deja clavarme ya en la alberca de tu ombligo
FIG 2
 Deja clavarme ya en la alberca de tu oído
FIG 2           C     D         Am   FIG 1 X2
 Deja clavarme ya  Y dejame entrar

SOLO: Aquí siguen las dos guitarras: una con WAH y otra normal

e|--------------------xx-8-x-7--5---------------------xx-8-x-7--5--|
B|--------------------xx-8-x-7--5---------------------xx-8-x-7--5--|
G|--------------------xx-9-x-8--5---------------------xx-9-x-8--5--|
D|-7-xx-7-7-xx-7-7-xx--------------7-xx-7-7-xx-7-7-xx--------------|X 2 veces
A|-7-xx-7-7-xx-7-7-xx--------------7-xx-7-7-xx-7-7-xx--------------|
E|-5-xx-5-5-xx-5-5-xx--------------5-xx-5-5-xx-5-5-xx--------------|
     WW     WW     WW                WW     WW     WW

Aquí toca varias veces acordes en La mayor seguidos de acordes en Re mayor... solo oigan la canción

VERSO 5: 
Am               
 Dejame entrar en la alberca de tus ojos
G
 Dejame entrar en la alberca de tu ombligo
D                  DDDD             Am   FIG 1
 Yo no te obligo nena    Dejame entrar 

VERSO 6:
Am          
 Quiero vivir en tus mundos ser tu dueño
G
 Quiero vivir en la casa de tus sueños
D                     DDDD            Am    FIG 1
 Yo quiero todo contigo    Dejame entrar

CORO 2:
FIG 2
 Deja clavarme ya en la alberca de tus ojos
FIG 2
 Deja clavarme ya en la alberca de tu ombligo
FIG 2
 Deja clavarme ya en la alberca de tu oído
FIG 2           C     D         Am   FIG 1 hasta que se acabe
 Deja clavarme ya  Y dejame entrar

Está fácil, solo que la guitarra que lleva el efecto WAH todo el tiempo si le da mucho ritmo, pero
si alguien la saca, pongala pienso que ha de ser muy parecida a la guitarra normal

Fuente original ATAME [www.atame.org]
Colaborador original: Guillermo Gerling [lgerling@yahoo.com]

Fuente: tusacordes.com