a b c d e f g h i j k l m n o p q r s t u v w x y z 0-9

De Pies A Cabeza

Mana

A
B
			
asi se va casi toda la rola, pero hay algunos cambios, hay se los explico 
cuando lleguemos ahi.

intro
A

G---------------------------------------------------------------------------------/
D---------------------------9---9---9---7--7---------------------------------/
A-----7---7---7---7------------------------------------------------------------/
E----------------------------------------------------9--9-----7---7---7---7--/

G--------------------------------------------------------------------------------/
D----9--9--9----7-7-6-7-----------------------9--9--9---7--7--------/
A--------------------------------7---7---7---7--------------------------------/
E--------------------------------------------------------------------------9--9--/

G-----------------------------------------------------------------------------------/
D-----------------------------------------------------------------------/
A---------------------------------------------------------------------------------/
E-----7--7--7--7---------------------------------------------------------------/

despues el resto de la cancion se va asi

B
G--------------------------------------------------------------------------------/
D--------------------------9---9---9---7--7---------------------------------/
A----7---7---7---7------------------------------------------------------------/
E----------------------------------------------------9--9-----7---7---7---7--/

G-----------------------------------/
D------9--9--9-----7-7-6-7--/
A-----------------------------------/
E----------------------------------/


despues se sigue tocando lo mismo hasta que la rola llega la parte donde dice asi:

quien te hara el amor por luna y playa
y cuando dice: quien sera tu sol..............
ahi se empieza este puentesito

G-------------------------------9-8-6-4-----------------------9-8-6-4-------------------/
D-------------7---------9--------------------------------7----------------7-6-4---------/
A----7-----------------------------------------7------------------------------------7-7-/
E---------------------------------------------------------------------------------------/

despues la rola sigue igual que la parte B hasta llegar a la parte del solito y 
despues empieza la voz y uno toca esto

G-----------------------------------------------------------------------------/
D|-----------6----------------------------------------------------------------/
A---7--7--7---7------------4---------------------6-------------------4--------/
E--------------------5--5--5---5-----7--7--7------7------5--5--5--5-----------/

G---------------------------------6-----------8-8--------------6--------------/
D--------------6------7--7--7----7------9------9-----7-7----7-----------------/
A----7--7--7----7-------------------------------------------------------------/
E-----------------------------------------------------------------------------/
y derrepente para esta parte
y seguis con la parte B

despues cuando llega la rola a la parte donde dicen:
de los pies a la cabeza, waio waio waio
y empieza asi

G--------------------------------------------------------------------------------/
D-------------6--------------------------------------------9--9--9---7--7--6-7---/
A---7--7--7---7------------4-----------------------------------------------------/
E--------------------5--5--5---5-----7--7---7--7---------------------------------/

y ahi acaba con esta ultima parte la rola.



deberian de colaborar mas con esto de las tabs para bajo.

hay muy pocas canciones en este site y hay buenas rolas para tocar. 

si alguien busca esta rola escribanme y hablemos de esto.

Fuente original ATAME [www.atame.org]
Colaborador original: Jose Labbe [joselabbe@hotmail.com]

Fuente: tusacordes.com