a b c d e f g h i j k l m n o p q r s t u v w x y z 0-9

Dame Amor

Mana

F
F#
Bbm
G#
			
 intro:

F  F#  F#  F

-------8-9-8-----------------------------8-9----8-----------------------------
----11-------11---------------------9-11-----11---9-11-------11-9-------------
----11----------10-11---10----10-11--------------------11-11------11-10-------
------------------------------------------------------------------------------
------------------------------------------------------------------------------
------------------------------------------------------------------------------

Bbm         G#             Ebm
Ven y empapame de amor
                     F     Bbm
ven y apagame este ardor
             G#            Ebm
Yo quiero ahogarme en ti
                    F      Bbm
en tus muslos naufragar

            G#             Ebm
amame hasta que mi piel
               F           Bbm
se vuelva amaneceres
             G#            Ebm
y no sepamos nunca mas
                         F       Ebm
donde esta el cielo o el suelo

       F     Bbm      Ebm
dame amor 10 veces
       F      Bbm         Ebm
dame amor, hazme el amor
       F      Bbm         
dame amor 100 veces
F#                        F                         
dame amor hasta que yo me muera


Bbm                  G#
---------------------------------------
-----6-9-9-9--7-6---6h7h6-------6------
---6--------------8-------8-6-8---8----
-8-------------------------------------
---------------------------------------
---------------------------------------

       Ebm     F
-------8-9-8------
---7-9-------9-6--
-8----------------
------------------
------------------
------------------

F  F#   F#  F

Quiero derretirme en ti
penetrar hasta tu corazon
yo quiero sembrarme en ti
sembrarme pa siempre

tomemonos hasta embriagar
hasta embriagar el alma
y no sepamos nunca mas
donde esta el cielo o el suelo

dame amor 10 veces
dame amor, hazme el amor
dame amor 100 veces
dame amor hasta que yo me muera

dame amor 10 veces
dame amor, hazme el amor
dame amor 100 veces
dame amor hasta que yo me muera


niña de mi amor
pierdete en mis mares
niña de mi amor
*************
no te puedes ir
niña de mis sueños
no me dejes mas
quiero ser tu dueño

dame amor 10 veces
dame amor, hazme el amor
dame amor 100 veces
dame amor hasta que yo me muera

F F# F# F 

Fuente original ATAME [www.atame.org]
Colaborador original: Kevin Vasquez [kevintachira@hotmail.com]

Fuente: tusacordes.com