a b c d e f g h i j k l m n o p q r s t u v w x y z 0-9

Cuando Los Angeles Lloran

Mana

E
A
B
C#m
			
cuando los angeles lloran

esta es mi primera cancion LAMENTO LOS ERRORES espero la puedan tocar esta version lleva capo en el segundo traste

e|------4-------4p2----------|------5-------5-2-----|
B|-----5------5------5-2-----|-----5------5-----4---|
G|----4-----4--------4-2-4---|----2-----2---------4-|
D|---2-------------------6---|----------------------|
A|---------------------------|----------------2-----|
E|-------------------3-------|---5------------------|

DE                        GA

e|------4-------4p2----------|------5-------5-------------|
B|-----5------5------5-2-----|-----5------5-----5-4p2-4---|
G|----4-----4--------4-2-4---|----2-----2-----6-----------|
D|---2-------------------6---|----------------------------|
A|---------------------------|------------------2---------|
E|-------------------3-------|---5------------------------|

DE             AB            BmC#m

e|------4---7p5-4--------2-------2-|-----------4------------------------------|
B|-----5----------7-5---4------4---|------5------7-5p4-----2------2----5---2--|
G|----4----------------4-----4-----|-----6-------------6p4------2----4---2----|
D|---2-----------------------------|----6---------------------2---------------|
A|--------------------2------------|---4--------------------------------------|
E|---------------------------------|-----------------------5---------4---2----|


e|---2h4-5p4-2----------------|
B|--------------5-5--4p2-4----|
G|-------------------------4|
D|----------------------------|
A|----------------2-----------|
E|----------------------------|


DE             AB            BmC#m

e|------4---7p5-4--------2-------2-|-----------4------------------------------|
B|-----5----------7-5---4------4---|------5------7-5p4-----2------2----5---2--|
G|----4----------------4-----4-----|-----6-------------6p4------2----4---2----|
D|---2-----------------------------|----6---------------------2---------------|
A|--------------------2------------|---4--------------------------------------|
E|---------------------------------|-----------------------5---------4---2----|


e|---2h4-5p4-2----------------|
B|--------------5-5--4p2-4----|
G|----------------------------|
D|----------------------------|
A|----------------2-----------|
E|----------------------------|






e|-------------4-5--7-----4p2--------|--------------|
B|-------4-5-7------5--5-------5-4---|---------5p4--|
G|---4-6---------------4-------------|-------6------|         D|------------------6----------------|-----6--------|          A|-----------------------------2-----|---4----------|
E|---------------------4--5----------|--------------|




Riff 1:

e|-----0--0--0----0--0--0--0------0--0--0---0--0--0-----|
B|--0-0--0--0----0--0--0--0----0-0--0--0---0--0--0---0--|
G|-1-2--1--2--2-2--1--2--1--1-1-2--1--2---4--2--1---1---|
D|-------------------------------------------------4----|
A|------------------------------------------------------|
E|------------------------------------------------------|



Riff 2:

e|-4-4-4-4-----------------------------------|
B|-5-5-5-5-5-5-5/7-7-7-7-7-4-4/5--5-5-2-2-0--|
G|---------6-6-6/8-8-8-8-8-4-4/6--6-6-2-2-1--|
D|-------------------------------------------|
A|-------------------------------------------|
E|-------------------------------------------|


Riff 3:

e|-----0--0----0----0--0--0----|--------4---|
B|--0-0--0----0----0--0--0-----|--------5---|
G|-1-2--1--1-2--2-1--2--1--2-1-|------4-----|
D|-----------------------------|----6-------|
A|-----------------------------|--4---------|
E|-----------------------------|------------|



                      Riff 4
                      |---------|
                      |--4-5/7--|
                      |--4-6/8--|
                      |---------|
C#m               B  |---------|
A chico Mendez lo mataron

                      Riff 5
                      |---------|
                      |--2-4/5--|
                      |--2-4/6--|
                      |---------|
                  A   |---------|
era un defensor y un angel

		E  Riff 3
de toda la amazonia


C#m		   B Riff 4
elmurio a sangre fria
		      A Riff 5
lo sabia a color de melo
		E
Y tambien la policia

Riff 6

e|--4---5---4--5p4----|--4---5--4--5p4----|
B|---5---5---5----5---|---5---5--5----5---|
G|----4---4---4----4--|----4---4--4----4--|
D|--------------------|-------------------|
A|--------------------|-------------------|
E|--------------------|-------------------|




Riff 7
e|--------|
B|-1-2-1--|
G|--------|
D|-1-2-1--|
A|--------|

                       Riff 8
                       e|--------|
                       B|-5-7-5--|
                       G|--------|
                       D|-6-7-6--|
                       A|--------|
G#mC#m
Cuando los angeles lloran

                         Riff 9
                       e|-----------|
                       B|--2-5-4-2--|
                       G|-----------|
                       D|--2-6-4-2--|
                       A|-----------|
                    A
lluvia cae sobre la aldea

                      Riff 10
                    e|----7---7-|--7-9--7--|
                    B|-/9---9---|--9-10-9--|
                    G|----------|----------|
                    D|----------|----------|
		E
sobre el campanario

                     Riff 11
                    e|-11-12-14--11-12-14---|--19--|
                    B|----------------------|------|
                    G|----------------------|------|
		B
pues alguien murio





Coro:

Riff 12
              C#m7
e|--------------0---0---------------|
B|-------------0-0-0-0--------------|
G|------------1---1---1-------------|
D|----------------------------------|
A|------------4---------------------|
E|----------------------------------|
  Un angelcayo
   A                 E
e|---0---0-------------0---0--------|
B|--0-0-0-0-----------0-0-0-0-------|
G|-2---2---2---------1---1---1------|
D|----------------------------------|
A|-0--------------------------------|
E|-------------------0--------------|
unangelmurio
    B               C#m7
e|----2---2-----------0---0---------|
B|---4-4-4-4---------0-0-0-0--------|
G|--4---4---4-------1---1---1-------|
D|----------------------------------|
A|--2-------------------------------|
E|------------------4---------------|
unangel se fue
   A                 E
e|---0---0-------------0---0--------|
B|--0-0-0-0-----------0-0-0-0-------|
G|-2---2---2---------1---1---1------|
D|----------------------------------|
A|-0--------------------------------|
E|-------------------0--------------|
          Y no volvera
    B
e|----2---2------|
B|---4-4-4-4-----|
G|--4---4---4----|
D|---------------|
A|--2------------|
E|---------------|





Riff 2


Riff 3




C#m		   B Riff 4
Cuando el asesino huia
		  A  Riff 5
chicoMendez se moria
			E   Riff 3
la selva se ahogaba en llanto

C#m			B Riff 4
El dejo dos lindos crios
		A  Riff 5
una esposa valerosa
		E   Riff 6
y una selva en agonia


Riff 7

G#m			C#m Riff 8
Cuando los angeles lloran
			A  Riff 9
es por cada arbol que muere
			E  Riff 10
cada estrella que se apaga
	B   Riff 11
oh no noo no



Riff 12
Un angelcayo

unangelmurio

unangel se fue

Y no volvera
Riff 12
Un angelcayo

unangelmurio

unangel se fue

se fue volando en madrugada




e|--------------|
B|--------------|
G|---6-6-9-9----| repetir
D|--------------|
A|--------------|
E|--------------|


e|-------4-4----|
B|---5-5-5-5----|
G|---6-6--------| repetir
D|--------------|
A|--------------|
E|--------------|

e|-------5-5----|
B|---5-5-5-5----|
G|---6-6--------| repetir
D|--------------|
A|--------------|
E|--------------|

e|---4-4-4-4----|
B|---5-5-5-5----|
G|--------------|
D|--------------|
A|--------------|
E|--------------|

Solo:

e|-------------------|-------7-8-----------|
B|---------4-5-7-7/9-|---7/9-----9-7-5-4---|
G|-------6-----------|---------------------|
D|-----6-------------|---------------------|
A|---4---------------|---------------------|
E|-------------------|---------------------|


e|-----------------------------------------|
B|---4-4-4--5-7--7-9--5-7--4-5--2-4-0------|
G|------------------------------------2-1--|
D|-----------------------------------------|
A|-----------------------------------------|
E|-----------------------------------------|


e|--------------------------9-8-11---------|
B|-----------5-4--------4------------------|
G|------------------5-6-----9-8-11---------|
D|--------------6-7------------------------|
A|---/6--6-6-------------------------------|
E|-----------------------------------------|




e|-11-12-14-11-12-9-11--9-----------------------------------------------|
B|--------------------12-10-12-9-10--9----------------------------------|
G|---------------------------------11--9-11-9-8-9--11-9-8--8-9-11-------|
D|-------------------------------------------------------11-------9/11--|
A|----------------------------------------------------------------------|
E|----------------------------------------------------------------------|


C#m7
Cuando los angeles lloran
A			E
cuando los angeles lloran
      B7
LLovera 
4-1-2-4-2-1-121---
5-----------------4-
C#m7
Cuando los angeles lloran
A			E
cuando los angeles lloran
      B7
LLovera

C#m7
Cuando los angeles lloran
A			E
cuando los angeles lloran
      B7
LLovera


C#m7
Cuando los angeles lloran
A			E
cuando los angeles lloran
      B7
LLovera


Riff 1
ehehehoohhh no nono

heyheyheyhye


Riff 1
ehehehoohhh no nono

heyheyheyhye


e|--------------|
B|--------------|
G|--------------|
D|--7-9-7-6-7-6-|

Hey!!!!!!

e|--------------|
B|--------------|
G|--------------|
D|--7-9-7-6-7-6-

Fuente: Tusacordes