a b c d e f g h i j k l m n o p q r s t u v w x y z 0-9

Cuando Los Angeles Lloran (unplugged)

Mana

			
La introducción va con un capotrasto
en el segundo traste


Intro:

     
e|------4-------4-0----------|------5-------5-4-------|
B|-----5------5------5-0-----|-----5------5-----7-4---|
G|----4-----4--------4-0-4---|----6-----6-------------|
D|---0-------------------6---|----------------------7-|
A|---------------------------|------------------------|
E|---------------------------|------------------------|

    

e|------4-------4-0----------|------5-------5--------------|
B|-----5------5------5-0-----|-----5------5-----5--4--0--4-|
G|----4-----4--------4-0-4---|----6-----6----6-------------|
D|---0-------------------6---|-----------------------------|
A|---------------------------|-----------------------------|
E|---------------------------|-----------------------------|

     
e|---4--7-5-4--------0----0|----4------------------------------|
B|--5---------7-5---4---4--|---5---7-5-4------2------2----5---2|
G|-4---------------4--4----|--6----------6-4-------2----4---2--|
D|0------------------------|-6-------------------2-------------|
A|-------------------------|4----------------------------------|
E|-------------------------|------------------5---------4---2--|


e|---0-4-5-4-0-----------------|
B|--------------5-5--4-2-4-----|
G|--------------------------4--|
D|-----------------------------|
A|----------------2------------|
E|-----------------------------|


     
e|---4--7-5-4--------0----0|----4------------------------------|
B|--5---------7-5---4---4--|---5---7-5-4------2------2----5---2|
G|-4---------------4--4----|--6----------6-4-------2----4---2--|
D|0------------------------|-6-------------------2-------------|
A|-------------------------|4----------------------------------|
E|-------------------------|------------------5---------4---2--|


e|---0-4-5-4-0----------------|
B|--------------5-5--4-2-4----|
G|----------------------------|
D|----------------------------|
A|----------------2-----------|
E|----------------------------|


e|-------------4-5-7-------4-2--------|--------------|
B|-------4-5-7-------5----------5-4---|---------5p4--|
G|---4-6------------------------------|-------6------| 
D|-------------------6----------------|-----6--------| 
A|------------------------------2-----|---4----------|
E|-------------------------5----------|--------------|



Esta parte ya va sin capotrasto:

Riff 1:

e|-----0--0--0----0--0--0--0------0--0--0----0--0--0--0-|
B|--0-0--0--0----0--0--0--0----0-0--0--0----0--0--0--0--|
G|-1-2--1--2--2-2--1--2--1--1-1-2--1--2--4-4--2--1--0---|
D|------------------------------------------------------|
A|------------------------------------------------------|
E|------------------------------------------------------|



Riff 2:

e|-4-4-4-4------------------------------------|
B|-5-5-5-5-5-5-5/7-7-7-7-7-4-4/5--5-5-2-2-0-0-|
G|---------6-6-6/8-8-8-8-8-4-4/6--6-6-2-2-1-1-|
D|--------------------------------------------|
A|--------------------------------------------|
E|--------------------------------------------|


Riff 3:

e|-----0--0----0----0--0--0----|----------4-|
B|--0-0--0----0----0--0--0-----|--------5---|
G|-1-2--1--1-2--2-1--2--1--2-1-|------4-----|
D|-----------------------------|----6-------|
A|-----------------------------|--4---------|
E|-----------------------------|------------|



C#m               B  
A chico Méndez lo mataron

Riff 4
    |---------|
    |--4-5-7--|
    |--4-6-8--|
    |---------|
    |---------| 

                      




                  A   
Era un defensor y un ángel

Riff 5
    |---------|
    |--2-4-5--|
    |--2-4-6--|
    |---------|
    |---------|

		E 
De toda la amazonia
                Riff 3



C#m		   B 
el murio a sangre fría
                    Riff 4
		      A 
lo sabia a color de melo
                     Riff 5

		E
Y tambien la policia

Riff 6

e|--4---5---4--5p4----|--4---5--4--5p4----|
B|---5---5---5----5---|---5---5--5----5---|
G|----4---4---4----4--|----4---4--4----4--|
D|--------------------|-------------------|
A|--------------------|-------------------|
E|--------------------|-------------------|



                       
G#m                 C#m
Cuando los angeles lloran
                    A
lluvia cae sobre la aldea
		E
sobre el campanario                  
		B
pues alguien murio









Coro:

Riff 12
              C#m7
e|--------------0---0---------------|
B|-------------0-0-0-0--------------|
G|------------1---1---1-------------|
D|----------------------------------|
A|----------------------------------|
E|----------------------------------|
  Un ángel cayo
   A                 E
e|---0---0-------------0---0--------|
B|--0-0-0-0-----------0-0-0-0-------|
G|-2---2---2---------1---1---1------|
D|----------------------------------|
A|----------------------------------|
E|----------------------------------|
         un angel murio
    B               C#m7
e|----2---2-----------0---0---------|
B|---4-4-4-4---------0-0-0-0--------|
G|--4---4---4-------1---1---1-------|
D|----------------------------------|
A|----------------------------------|
E|----------------------------------|
      un angel se fue
   A                 E
e|---0---0-------------0---0--------|
B|--0-0-0-0-----------0-0-0-0-------|
G|-2---2---2---------1---1---1------|
D|----------------------------------|
A|----------------------------------|
E|----------------------------------|
          Y no volvera
    B
e|----2---2------|
B|---4-4-4-------|
G|--4---4--------|
D|---------------|
A|---------------|
E|---------------|


Riff 2


Riff 3










C#m		   B 
Cuando el asesino huía
                    Riff 4
		  A  
Chico Méndez se moría
                    Riff 5
			
                         E   
la selva se ahogaba en llanto
                           Riff 3


C#m			B 
El dejo dos lindos críos
                      Riff 4
		A  
una esposa valerosa
                  Riff 5
		  E   
y una selva en agonía
                   Riff 6



G#m			C#m 
Cuando los angeles lloran
			A  
es por cada arbol que muere
 			E  
cada estrella que se apaga
	B   
oh no noo no



Riff 12
Un angel cayo

un angel murio

un angel se fue

Y no volvera
Riff 12
Un angel cayo

un angel murio

un angel se fue

se fue volando en madrugada






e|--------------|
B|--------------|
G|---6-6-9-9----| repetir
D|--------------|
A|--------------|
E|--------------|


e|-------4-4----|
B|---5-5-5-5----|
G|---6-6--------| repetir
D|--------------|
A|--------------|
E|--------------|

e|-------5-5----|
B|---5-5-5-5----|
G|---6-6--------| repetir
D|--------------|
A|--------------|
E|--------------|

e|---4-4-4-4----|
B|---5-5-5-5----|
G|--------------|
D|--------------|
A|--------------|
E|--------------|

Solo:

e|--------------------|-------7-8-----------|
B|---------5--7-7-7/9-|---7/9-----9-7-------|
G|-------6------------|---------------9-8---|
D|-----6--------------|---------------------|
A|---4----------------|---------------------|
E|--------------------|---------------------|



e|------------------------------------------|
B|---4-4-4--5-7--7-9--5-7--4-5--2-4--0------|
G|-------------------------------------2-1--|
D|------------------------------------------|
A|------------------------------------------|
E|------------------------------------------|


e|---------------------------9-8-9-11-------|
B|-----------5-4---------4------------------|
G|-------------------5-6-----9-9-9-11-------|
D|---------------6-7------------------------|
A|----6-6-6---------------------------------|
E|------------------------------------------|



e|11-12-14-11-12-9-11-9|
B|---------------------|
G|---------------------|
D|---------------------|
A|---------------------|
E|---------------------|

e|---------------------|
B|-12-10-12-10-9-10----|
G|---------------------|
D|---------------------|
A|---------------------|
E|---------------------|

e|----------------------------|
B|----------------------------|
G|-11-9-11-9-8----8-9-11------|
D|-------------11--------9/11-|
A|----------------------------|
E|----------------------------|

C#m7
Cuando los ángeles lloran
A			E
Cuando los ángeles lloran
      B7
Lloverá

C#m7
Cuando los ángeles lloran
A			E
Cuando los ángeles lloran
      B7
Lloverá

C#m7
Cuando los ángeles lloran
A			E
Cuando los ángeles lloran
      B7
Lloverá


C#m7
Cuando los ángeles lloran
A			E
Cuando los ángeles lloran
      B7
Lloverá


Riff 1
Eh eh eh oohhh no no no

Hey hey hey hey


Riff 1
Eh eh eh oohhh no no no

Hey hey hey hey


e|-5-7-5-4-5-4--|
B|--------------|
G|--------------|
D|--------------|
A|--------------|
E|--------------|

Hey!!!!!!

Solo de timbales

e|-5-7-5-4-5-4--|
B|--------------|
G|--------------|
D|--------------|
A|--------------|
E|--------------|


Riff 1

Riff 1


e|--------------|
B|--------------|
G|--------------|
D|--------------| x3
A|-9-11-11-9-11-|
E|--------------|

e|--------------------|
B|--------------------|
G|--------------------|
D|--------------9-8~--| 
A|-9-11-11-9-11-------|
E|--------------------|

e|-----------------4--|
B|-----------------5--|
G|-----------------6--|
D|-----------------6--| 
A|-9-11-11-9-11----4--|
E|-----------------4--|


Fuente: tusacordes.com