a b c d e f g h i j k l m n o p q r s t u v w x y z 0-9

Cuando Los Angeles Lloran (intro)

Mana

			
La V significa rasgueo hacia abajo



V             V            V             V
e--4---4---------5---5-4----I-4---4---------5---5-----------
b--5--5--7-5-2---5--5---7-4-I-5--5--7-5-2---5--5--7-5-4h2-4-
g--4-4-----4-2-4-6-6--------I-4-4-----4-2-4-6-6-------------
d--------------6-----------7I-------------6-----------------


  V           V     V              
e-4-7-5-4-----2---2---4-------------------------------4-5-4-----b----------7-5-4--4--5---7-5-4------2---2---5------2--7------7--
g-4-----------4-4---6---------6-4-----2---4----2----------------
d-------------------6----------------2--------------------------
a---------------------------------------------------------------
E----------------------------------5-----4---2------------------

e------------
b-5-5--4h2-4-
g------------   X2
d------------  
a------------
E------------


e-----------4-5-7---4/2---------------
b-----4-5-7-------5-----5-4----5h4----
g-4-6-------------------------6-------
d----------------------------6--------
a---------------------------4---------




                                   ..::GUSTAVO A MONTEBLACK::..

Fuente: tusacordes.com