a b c d e f g h i j k l m n o p q r s t u v w x y z 0-9

Corazon Espinado

Mana

			
-|----------------------------7-6-----------------------------|
-|--------------------------7------7--------------------------|
-|-----4h7p4---4---------/7----------9--7-9^9^--------9-6-7-9-|
-|-4h7-------7------------------------------------------------|
-|------------------------------------------------------------|
-|------------------------------------------------------------|

                                                                              
-|------7h10p7----7------------14-17^r--14-----------14------14----14---------------------------------|
-|-7h10--------10----------/17-------------17--15-17^----17^----17^-----17-14-15-17---15-14-14--------|
-|----------------------------------------------------------------------------------------------16----|
-|----------------------------------------------------------------------------------------------------|
-|----------------------------------------------------------------------------------------------------|
-|----------------------------------------------------------------------------------------------------| 
Esa mujer me esta matando
Me ha Espinado el corazón
-|------------------------|
-|-10----------7----------|
-|-9^--9p7-9-7---7--------|
-|-----------------9------|
-|------------------------|
-|------------------------|
Y por mas que trato de olvidarla
Mi alma no da razón
-|-------------------|
-|-------------------|
-|-6-7-9---9p7p6-----|
-|--------------9----|
-|-------------------|
-|-------------------|
Mi corazón aplastado
-|-5-------------------------|
-|---8-7-5---5----7p5h7------|
-|---------7-----------------|
-|---------------------------|
-|---------------------------|
-|---------------------------|






Molido y abandonado
 A ver A ver
-|--------------|
-|--------------|
-|---4-6-7------|
-|-4------------|
-|--------------|
-|--------------|
Tu sabes, dime mi amor
Cuanto amor
Y que dolor nos quedo
Coro:
Ah ah ah, corazón espinado Como duele, me duele no amar Ah ah ahy, como me duele el amor
-|-------------------------------------------------|
-|-10^///////-10^///////-10^--10p7---7---7---------|
-|---------------------------------9---9---9^------|
-|-------------------------------------------------|
-|-------------------------------------------------|
-|-------------------------------------------------|
Y como duele, como duele el corazón
Cuando uno  es bien entregado
-|--------------|
-|--------------|
-|-6-7-9--------|
-|--------------|
-|--------------|
-|--------------|
Pero no olvides mujer que algún día dirás
Ay ay ay           como me duele el amor 
-|------------------------------------------|
-|------------------------------------------|
-|---7-7-7------------7---7-----------------|
-|-9^---------------9^--9^--7-9p7-----------|
-|-------------------------------9----------|
-|------------------------------------------|
Coro:
Ah ah ahy, corazón espinado, como me duele el amor
-|--------------------------------7-----------------------|
-|-10^-----10--7--10-7h10p7---7-----10p7-----7------------|
-|--------------------------9---9^-------9p7---7----------|
-|-----------------------------------------------9--------|
-|----this is the best I could figure this one out...-----|
-|--------------------------------------------------------| 
Ah ah ah, corazón espinado 
-|-------------------------------------------------------12----12-12------------------------------------------|
-|-----------------------17p15-17p15-17p15-17p15-17^--------17^------15-17p15------15--14----15-14------------|
-|-----7---6----7-6------------------------------------------------------------16------------------16-16------|
-|-9----------------9-9---------------------------------------------------------------------------------------|
-|------------------------------------------------------------------------------------------------------------|
-|------------------------------------------------------------------------------------------------------------|
  ah  ah  ah, como me duele el amor
-|---------------------------------2////////*-------|
-|---------------------------------3////////*-------|
-|--------------------------------------------------|
-|--------------------------------------------------|
-|-/9-9-9-------------------------------------------|
-|--------------------------------------------------|
Xw3 SOLO
-|-------------------------------------------------------------------------------|
-|-12----------------------------14br-12-----12//////----------------------------|
-|---------14-11----11-11----------------14^----------14p11----------------------|
-|---------------14^-----------------------------------------14^-14---12h14------|
-|-------------------------------------------------------------------------------|
-|-------------------------------------------------------------------------------|

-|----------------------------------------------------------14///////--14t15*----14-15-14-15-14-15-14-15-17-15-14-17^-|
-|-12-15-15-12-15-12-15-15-12---14-17-17-14-17-14-17-17-14------------------------------------------------------------|
-|--------------------------------------------------------------------------------------------------------------------|
-|--------------------------------------------------------------------------------------------------------------------|
-|--------------------------------------------------------------------------------------------------------------------|
-|--------------------------------------------------------------------------------------------------------------------|
                         
-|-17^-----17-14----14-14-----17^-17^-17^rp14--14-------------14---------------|
-|---------------17^-------------------------17--17b-17p15h17---15-17--15p14---|
-|--------------------------------------------------------------------------16-|
-|-----------------------------------------------------------------------------|
-|-----------------------------------------------------------------------------|
-|-----------------------------------------------------------------------------|
 
-|-----------------------------------------------------------------------------------------------------------------------|
-|-15p14p12-15p14p12-15p14p12-15p14p12-15p14p12-15p14p12-15p14p12--17p15p14-17p15p14-17p15p14-17p15p14-17p15p14-17p15p14-|
-|-----------------------------------------------------------------------------------------------------------------------|
-|-----------------------------------------------------------------------------------------------------------------------|
-|-----------------------------------------------------------------------------------------------------------------------|
-|-----------------------------------------------------------------------------------------------------------------------|                                                                             


                                                                              

-|-2////////////---------------------------------------------|
-|-3////////////---------------------------------------------|
-|-----------------------------------------------------------|
-|-----------------------------------------------------------|
-|-----------------------------------------------------------|
-|-----------------------------------------------------------|                   
Como me duele el olvido 
-|----------------------------------------|
-|----------------------------------------|
-|----------------------------------------|
-|-14-12-11-----------11-11---------------|
-|-----------14-12-14---------------------|
-|----------------------------------------|
Como duele el corazón 
-|---7-9---10-9-7----------------|
-|-7----------------7------------|
-|--------------------7----------|
-|----------------------9-7------|
-|-------------------------------|
-|-------------------------------|
Como me duele estar vivo 
-|---------------------------------------------------|
-|---------------------------------------------------|
-|----------------------11-12-12-11h12p11------------|
-|-----11-14-14-11---14-------------------14--12-----|
-|-/12------------12---------------------------------|
-|---------------------------------------------------|
Sin tenerte a un lado amor 
-|-----------------------------|
-|-----------------------------|
-|-----------------------------|
-|-----------------------------|
-|-/9-9-9-/9-9-9-/9-9-9--------|
-|-----------------------------|
Corazón espinado 4x
-|---------------------------------------------------------7-----------------------7----7----7-7-7-7-7-|
-|-------------7-----------------------------------7----------------7--------------7----7----7-7-7-7-7-|
-|-----7--9------7---------7--6----7-6--------/7-9---9---9^--9p7h9---7--------7-9^---9^---9^-----------|
-|-9---------------9-7-9---------------7---9--------------------------9p7h9----------------------------|
-|---------------------------------------9-------------------------------------------------------------|
-|-----------------------------------------------------------------------------------------------------|




                 
-|---------------------12--------------------------------------------------------------------------14////////------------14-
-|-17^------17-15-17^-----17^--12h15p12-12--15p12-12--15p12-12-----14h17-17--14h17-17--14h17-17----15////////15-14-15-17----
-|--------------------------------------------------------------------------------------------------------------------------
-|--------------------------------------------------------------------------------------------------------------------------
-|--------------------------------------------------------------------------------------------------------------------------
-|--------------------------------------------------------------------------------------------------------------------------
                                                                              
-17p14-17p14-17p14-17^--17^-17^-17^-rp14--14----------------|
----------------------------------------17--17^-17p15-------|
------------------------------------------------------------|
------------------------------------------------------------|
------------------------------------------------------------|
------------------------------------------------------------|
                                                                              
-|----------------------------------------------------------------------------------------------------------------------------------------|
-|---------15--15-15-14----17-15-14-------------15--14-----15-14----------------------------12--------------------------------------------|
-|-16/////--------------------------14----h16--------------------16-16----------11----------------------11-----------------11-------------|
-|-16/////-----------------------------16---------------------------------12-14----14----14^---14p12h14---12---------12-12----14----12h14-|
-|---------------------------------------------------------------------14-----------------------------------14----14----------------------|
-|----------------------------------------------------------------------------------------------------------------------------------------|
                                                                              
-|----7/////----9/////----10/////----12//-14-14----14----14----14------14-15^-----------14---------------------------------------------|
-|-10^-------12^-------13^--------15^-----------17^---17^---17^---17^---------17-15-17^---15------15-------15-------14h17-17-14h17-17--|
-|------------------------------------------------------------------------------------------16-16----16-16----16-16--------------------|
-|-------------------------------------------------------------------------------------------------------------------------------------|
-|-------------------------------------------------------------------------------------------------------------------------------------|
-|-------------------------------------------------------------------------------------------------------------------------------------|

Fuente: tusacordes.com