a b c d e f g h i j k l m n o p q r s t u v w x y z 0-9

Corazon Espinado

Mana

			
Si no entienden estos bajos enviame tu pregunta a mi 
correo.

Afinacion con:E;A;D;G.


G-----------------------------------------
D-------0---0-----------------------------
A----2------------------------4-------4---
E--------------2---2------6-------6-------

Para la parte en que baja a Em son estos bajos.

G---------------------------------------
D----------5---5----------5---7---7---5-
A------7-----------7---7----------------
E---------------------------------------
 
A-------5---5-----------5---9---9---5--

E---7-----------7---7------------------
Repite lo mis mo yluego has lo mismo en D Y A Y vuelves a E.

Repite lo del principio entoda la cancion
Cualquier cosa escribeme.

Fuente original ATAME [www.atame.org]
Colaborador original: HANS ARROBA [hans-arroba@hotmail.com , hans_acordes@ecuabox.com o loco_hans@latinmail.com]

Fuente: tusacordes.com