a b c d e f g h i j k l m n o p q r s t u v w x y z 0-9

Corazon Espinado

Mana

			
Esta cancion se la dedico Especialmente a Nidia ya que me hequivoque de nombre cuando le dedique la de Tu Y tambien para todos mis amigos en Reynosa Tamps. y en Mcallen Tx.

Intro.
   2 Tiempos
e---------------------7/6-------------2/5--7/10-----7-------
B-------------------7-------5-----5-5------------10---------
G-------7---------7-----------6-7---------------------------
D---7-9---9-------------------------------------------------
A(9---------/9)---------------------------------------------
E-----------------------------------------------------------

                    Se Repite
e-10-14-^17-^17------14-17-14------ 14/17/14---12-10-12/14^-
B-----------------(17----------17)--------------------------
G-----------------------------------------------------------
D-----------------------------------------------------------
A-----------------------------------------------------------
E-----------------------------------------------------------

                                                    Esa mujer
e-^14^-14-14-14-14-14-^14^---12--9-10-12--9/10/9^^---------
B-^17^-17-17-17-17-17-^17^---------------------------------
G----------------------------------------------------------
D----------------------------------------------------------
A----------------------------------------------------------
E----------------------------------------------------------


Los Acordes son  Frases   Bm  Em  F#

Coro                      BM  Em6 F

Pre-Coro                  Em  Em  D  A 


***Nota, en el pre-coro no me acuerdo muy bien ya que esta vercion la escribi sin guia de tab. Escribeme tansiquiera para mentarmela, Bye!

Fuente original ATAME [www.atame.org]
Colaborador original: J. Luis Ramos Jr. [Luisr1979@hotmail.com]

Fuente: tusacordes.com