a b c d e f g h i j k l m n o p q r s t u v w x y z 0-9

Como Te Deseo

Mana

			
Esta versión se oye igualita a la original,sino
y hay algún error, ahi me corrigen. espero les guste


INTRO:
e) ---0----0-----0---0----------------------0
b) ---------------------------------------0--
g) --2---2-----2---2-------2---2--4-----1----
d) --------------------------0---------------
a) -----------------------------------x------
e) ------------------------------------------

Eso se repite dos veces y después cuando dice:
mariposas bailan en mi pecho.... en ese mometo va 
esto

VERSOS:

e) ------------------0-----------------------0----
b) ------3-------------0-------------3---------0--
g) ---------4------------0---------2---2---------2
d) ---4-------------------------0-----------------
a) –2-------------------------------------0-------
e) --------------3--------------------------------

Esto se rpite varias veces

CORO:
El coro va así, en las notas se utiliza el palm mute, 
el rasgueo va con fuerza

e) -------------------------------x—2-2-x-3-3—x-x-0-0
b) --------3------------3-3-------x—3-3-x-3—3-x-x-2-2
g) --2-2-4---4----2-2-4-----4-----x—2-2-x-4-4—x-x-2-2
d) --------------------------------------------------
a) --------------------------------------------------
e) --------------------------------------------------

Eso se repite 4 veces, despues van las notas del verso,
despues las del coro, de ahi las del verso, seguidas
por las notas del intro, despues, las notas del ultimo 
coro se transportan 2 trastes, pero de cualquier forma
ahi les va:

e)-----------------------------x-4-4-x-5-5-x-x-2-2
b)--------5----------5-5-------x-5-5-x-5-5-x-x-4-4
g)--4-4-6--6---4-4-6-----6-----x-4-4-x-6-6-x-x-4-4
d)------------------------------------------------
a)------------------------------------------------
e)------------------------------------------------

Finalmente estas son las ultimas notas de la cancion:

e)-7-7-7-7-7-7----------7-7-7-7-7-7--------
b)-9-9-9-9-9-9-9-9-7-9--9-9-9-9-9-9-9-9-7-5
g)-------------9-9-8-9--------------9-9-8-6
d)-----------------------------------------
a)-----------------------------------------
e)-----------------------------------------

e)-7-7-7-7-7-7----------7-7-7-7-9-9-------
b)-9-9-9-9-9-9-9-9-7-9--9-9-9-9-9-9-7-7-9-
g)-------------9-9-8-9--------------8-8-9-
d)----------------------------------------
a)----------------------------------------
e)----------------------------------------
 
Eso es todo, creo, y esto se repite varias veces, 
con pequeñas variantes en la ultima parte, aunque
ya cada quien le puede poner su estilo.

Fuente original ATAME [www.atame.org]
Colaborador original: Amado Maldonado Reyes [amaldonador@hotmail.com]

Fuente: tusacordes.com