a b c d e f g h i j k l m n o p q r s t u v w x y z 0-9

Como Dueles En Los Labios

Mana

			
INTRO x4

e ---------------0-----------------------
b --3---3---3---------3---3-3----1-0-----
g ----0---0---0-----0---2--2-2-----------
D ---------------------------------------
A ---------------------------------------
E --3-----------------2------------------
 
...Como dueles en los labios

e -------------------------------------------------------
b --3--3--3--3---3-3---0-1---3--3--3--3---3-3-3----1-0---
g ---0--0--0--0---2-2---------0--0--0--0---2-2-2---------
D -------------------------------------------------------
A -------------------------------------------------------
E --3------------2-----------3------------2--------------

..como duelen sus caricias cuando ya...

e ------------------------------2------------------------
b --3---3---3--3--3--3--------0---0-0-0-0-0-0-0--3-3-----
g ----0---0--0--0---2-2-----2------0-0-0-0-0-0-0--2-2----
D ------------------------1------------------------------
A -------------------------------------------------------
E --3-------------2---------------0-------0------2-------

...como me duele la ausencia,   

e -------------------------------------------------------
b --3--3--3--3---3-3---0-1---3--3--3--3---3-3-3----1-0---
g ---0--0--0--0---2-2---------0--0--0--0---2-2-2---------
D -------------------------------------------------------
A -------------------------------------------------------
E --3------------2-----------3------------2--------------

...como falta su presencia en mi habitación

e ------------------------------2-----------
b --3---3---3--3--3--3--------0-------------
g ----0---0--0--0---2-2-----2---------------
D ------------------------1-----------------
A ------------------------------------------
E --3-------------2-------------------------

		   ...como me duele el invierno

E ---------------------------0-------0-1--------------------
B -0-0-0-0-0-0---1--3--1-1-1----3-3--3-3-1-1-1-1--3-3-------
G --0-0-0-0-0-0---0--0--0-0-0-0--0-0--0---0-0-0-0--0-0------
D ----------------------------------------------------------
A ---------------0--2--3--------2--------3--------2---------
E -0-------0------------------------------------------------


E --3-1-----------------------------------------------------
B --0-0--1-1-1-1--3-3-----2--1-1-1-1-1-1---3-3--1-1-1-1-----
G ---0-0--0-0-0-0--0-0---0----2-2-2-2-2-2---0-0--0-0-0-0----
D ----------------------0-----------------------------------
A -------3--------2----1-----0-------0-----2----3-----------
E ----------------------------------------------------------


E -------0-1----------------3-1-----------------------------
B --3-3--3-3-1-1-1-1--3-3---0-0--1-1-1-1--3-3---------------
G ---0-0--0---0-0-0-0--0-0---0-0--0-0-0-0--0-0--------------
D ----------------------------------------------------------
A --2--------3--------2-----------3--------2----------------
E ----------------------------------------------------------

e -------------------------
B -----2----1-1-1-1--------
G ----0------2-2-2-2-------
D ---0---------------------
A --1-------0--------------
E -------------------------

...Como dueles, en los labios...
                                         soledad.
E----------------------------------------------------------
B-1-1-1-1--1-1-1-1--1-1-1-1---4-4-4-4-----1----------------
G--2-2-2-2--2-2-2-2--2-2-2-2---3-3-3-3-----0---------------
D----------------------------------------------------------
A-----------------------------------------3----------------
E-3--------2--------1---------3----------------------------

Solo: flauta

E ------0--------0-1----------------------------------------
B --1-1-----3-3--3-3-1-1-1-1--3-3-3-3---1-1-1-1--3-3------2-
G ---0-0-0---0-0--0---0-0-0-0--0-0-0-0---0-0-0-0--0-0----0--
D ------------------------------------------------------0---
A --3-------2--------3--------2---------3--------2-----1----
E ----------------------------------------------------------

          ...Como dueles, en los labios...
                                               soledad.
E----------------------------------------------------------
B-1-1-1-1--1-1-1-1--1-1-1-1--1-1-1-1--4-4-4-4---1-1-1-1----
G--2-2-2-2--2-2-2-2--2-2-2-2--2-2-2-2--3-3-3-3---0-0-0-0---
D----------------------------------------------------------
A-0---------------------------------------------3----------
E----------3--------2--------1---------3-------------------

Solo: guitarra
E ------------------------------------0----
B -1--3---1-1--1-1--1-1---3-3---0-0-3------
G --0--0---2-2--2-2--2-2---2-2---1-1-1-1---
D ------------------------0----------------
A -3--2---0--------------------------------
E -------------3----2-----------0----------

E ----------------------------0------
B --1-1--1-1--1-1---3-3---0-0---3----
G ---2-2--2-2--2-2---2-2---1-1-1-1---
D ------------------0----------------
A --0--------------------------------
E -------3----2-----------0----------

...Como me duele no verte, Como duele en madrugada BIS
E ---------------------------------------
B --1-1--1-1--1-1---3-3---0-0-3-3--------
G ---2-2--2-2--2-2---2-2---1-1-1-1-------
D ------------------0--------------------
A --0------------------------------------
E -------3----2-----------0--------------

...Como dueles en los labios, como duele en madrugada BIS 
se repite hasta el final
e ---------------------------------------
B --3-3--3-3--3-3---5-5---2-2-5-5--------
G ---4-4--4-4--4-4---4-4---3-3-3-3-------
D ------------------2--------------------
A --2------------------------------------
E -------5----4-----------2--------------

Fuente original ATAME [www.atame.org]
Colaborador original: Carlos Barrantes [kv96475@maderas.ibw.com.ni]

Fuente: tusacordes.com