a b c d e f g h i j k l m n o p q r s t u v w x y z 0-9

Como Dueles En Los Labios

Mana

			
Por: Juan Pablo Daza
Esta es la VERDADERA partitura de este tema.
La guitarra acústica toca un estudio, el cual va acompañado
de sus bajos y notas agudas:

e ---------------0----------------------------------------
b --3---3---3----------3---3-3----1-0---------------------
g ----0---0---0-----0----2--2-2---------------------------
D --------------------------------------------------------- 
A ---------------------------------------------------------
E --3------------------2-----------------------------------

Todo esto se repite hasta llegar a:

...como duelen sus caricias cuando ya...

e ------------------------------2-------------------------------0----
b --3---3---3--3--3--3-3------0---0-0-0-0-0-0-0--3-3-3--3--3--3------
g ----0---0--0--0---2-2-2---2------0-0-0-0-0-0-0--2-2-2---0--0-0-0---
D ------------------------1------------------------------------------
A -------------------------------------------------------------------
E --3-------------2---------------0------00------2------3------------

si quieres más, debes escribirme a: dodaza@telepalmira.com.co
tengo tabs de Soda, Héroes, Queen, Caifanes, Santana,
y otros que te gusaría conocer.

Pablo

Fuente original ATAME [www.atame.org]
Colaborador original: Juan Pablo Daza [Dodaza@telepalmira.com.co]

Fuente: tusacordes.com