a b c d e f g h i j k l m n o p q r s t u v w x y z 0-9

Como Dueles En Los Labios

Mana

			
|--0-----0-----0-----2------0-----0-----0---------------|		|
|--------------------------------0-----0-----0---3/2-----|		|
|-----2-----2-----2-----2---------------------------------|		|      X4
|-----------------------------------------------------------|		|
|--0-------------------------2-------------------2--------|		|
|-----------------------------------------------------------|		|
						             
Canción:
|---------------------------------------------------------------|	
|---2-----2------2------2------0------0------2-----3-------|
|------2------2------2------2------1------1-----1------1---|		PARTE A
|---------------------------------------------------------------|
|---0----------------------------2-------------2--------------|
|---------------------------------------------------------------|

|-----------------------------------------------0--------------|
|---2-----2------2------2------0------0-------------3-------|
|------2------2------2------2------1------1-----1-------1--|		PARTE B
|---------------------------------------------------------------|
|---0----------------------------2-------------2------2------|
|---------------------------------------------------------------|

|-------------------------------------------------------------------------------------------------------------0-----0----|
|---2-----2------2------2------0------0--------------3------2------2------2------2------2------2-------------------|
|------2------2------2------2------1--------------4------4------2------2------2------2------2------2------1-----1-|
|--------------------------------------------2---0-----------------------------------------------------------------------|
|---0----------------------------2-----------------------------4--------------------------------------------2-----------|
|----------------------------------------------------------------------------------------------2--------------------------|
		PARTE C

PARTE A
PARTE B

|------------------------------------------------------------------------------------------------------------------------|
|---2-----2------2------2------0------0--------------3------2------2------2------2------2------2------3----5-----|
|------2------2------2------2------1--------------4------4------2------2------2------2------2------2-----0----0--|
|--------------------------------------------2---0----------------------------------------------------------0-----------|
|---0----------------------------2-----------------------------4-------------------------------------------------4------|
|----------------------------------------------------------------------------------------------2--------------------------|


|---------------------------------0-----0-----2-----3---------------|
|--3------3------3------3-------------------------------------------|
|------2------2------2------2------2-----2-----2-----2------------|		PARTE D
|--0------------------------------------------------------------------|
|---------------------------------4-----------------------------------|
|----------------------------------------------------------------------|






|---------------------------------0-----0-----5-----3----------------|
|--3------3------3------3--------------------------------------------|
|------2------2------2------2------2-----2-----2-----2-------------|		PARTE E
|--0-------------------------------------------------------------------|
|---------------------------------4------------------------------------|
|-----------------------------------------------------------------------|

|-----------------------------------------------------------------------------------------------------------0------0----|
|--3------3------3------3------2------2------2------2------3------3------3------3------3-----3--------------------|
|------2------2------2------2------2------2------0------0------4------4------4------4-----4------4------2------2-|
|--0---------------------------------------------------------------------------------------------------------------------|
|--------------------------------0--------------1--------------2----------------------------2-------------0------------|
|-------------------------------------------------------------------------------------------------------------------------|

PARTE D
PARTE E

|-----------------------------------------------------------------------------------------------|
|--3------3------3------3------2------2------2------2------3------3------3------3--------|
|------2------2------2------2------2------2------0------0------4------4------4------4----|
|--0-------------------------------------------------------------------------------------------|
|--------------------------------0--------------1--------------2------------------------------|
|-----------------------------------------------------------------------------------------------|


|---------------------------------------------------------------------------------------------
|--3------3------3------3------3------3------3------3------3------3------3------3------
|------2------2------2------2------2------2------2------2------2------2------2------2--
|---------------------------------------------------------------------------------------------
|--0-----------------------------4-----------------------------3-----------------------------
|----------------------------------------------------------------------------------------------

------------------------------------|
---3------3------3------3---------|
-------2------2------2------2-----|
------------------------------------|
---0--------------------------------|
------------------------------------|


PARTE D
PARTE E

|-----------------------------------------------------------------------------------------------|
|--3------3------3------3------2------2------2------2------3------3------3------3--------|
|------2------2------2------2------2------2------0------0------4------4------4------4----|
|--0-------------------------------------------------------------------------------------------|
|--------------------------------0--------------1--------------2------------------------------|
|-----------------------------------------------------------------------------------------------|


|---------------------------------------------------------------------------------------------
|--3------3------3------3------3------3------3------3------3------3------3------3------
|------2------2------2------2------2------2------2------2------2------2------2------2--
|---------------------------------------------------------------------------------------------
|--0-----------------------------4-----------------------------3-----------------------------
|----------------------------------------------------------------------------------------------



------------------------------------|
---3------3------3------3---------|
-------2------2------2------2-----|
------------------------------------|
---0--------------------------------|
------------------------------------|

|-----------------------------------------------|
|--3-----3------3------3------3------5-------|
|-----2------2------2------2------2------0----|
|--0----------------------------0---------------|
|---------------------------------------4-------|
|-----------------------------------------------|

|-------------------------------------------------0------0----------------------0------2--------|
|--3------3-------3------3------3------3----------0------0---2------2-----------------------|
|------2------2-------2------2------2------2----------------------3------3------3------3----|
|-------------------------------------------------------------------------------------------------|
|--2--------------0--------------4--------------------------------------------------------------|
|-------------------------------------------------0--------------2-------------------------------|

|-------------------------------------------------0------0----------------------2------0--------|        
|--3------3-------3------3------3------3----------0------0---2------2-----------------------|         	
|------2------2-------2------2------2------2----------------------3------3------3------3----|            X3
|-------------------------------------------------------------------------------------------------|
|--2--------------0--------------4--------------------------------------------------------------|
|-------------------------------------------------0--------------2-------------------------------|

|--0------0------0------0------0------0------2-----0---------------------4-----2------|
|------2------2------2------2------2------2-----2------2---4-----4--------------------|
|------------------------------------------------------------------5-----5------5-----0---|		PARTE 
|-------------------------------------------------------------------------------------------|		FINAL
|--4--------------2-------------0---------------------------------------------------------|
|-----------------------------------------------2--------------4---------------------------|

La parte final se la realiza las veces que sean necesarias para acabar la canción.

Fuente original ATAME [www.atame.org]
Colaborador original: Andrey Rodriguez Y. [andreycito@lettera.net]

Fuente: tusacordes.com