a b c d e f g h i j k l m n o p q r s t u v w x y z 0-9

Como Diablos

Mana

			
INTRO
eX--------------------------------------------------------------
BX------------------------------------------------9--9--7-------
GX---------------------------------------9--8--6-----------9---8
DX-----------6-------------------6------------------------------
AX--7--7--7------6-----7--7--7------6---------------------------
EX-------------7------------------7-----------------------------

eX-----------------------------------------------------------------
BX-------------------------------------------------9--9--7--10--9--
GX---------------------------------------9--8--6-------------------
DX-----------6-------------------6---------------------------------
AX--7--7--7------6-----7--7--7-------6-----------------------------
EX-------------7-------------------7-------------------------------

E  B  c#  A

E  B  A   A-c#-B E


E         B               c#           A
 Quedé ahogado entre tus muslos y tu miel 

E         B           c#           A 
 Quedé dañado cuando te fuiste con él 


E           B              c#        A
 Quedé tan solo que he perdido la razón 

E           B               A       c#   B  
 Caí en tu fuego y está quemando el corazón 


E   B             E    B     
*Como diablos te me metiste, 

E              B            E 
 Me está estallando el corazón 

eX-------------------4-----
BX-------------------5-----
GX-------------------6-----
DX-------------------6-----
AX---7--6--4---------------
EX-------------7-----------

c#   A             E     B     A     c#        B
  Como diablos te me perdiste, ay, ay, ay, ay, ay 

E          B           c#               A  
 Estoy perdido en las venas de esta ciudad 

E      B              c#            A     
 Extrañándote en la orilla de este bar, 

E          B                c# 
 Como una rosa que está en medio 

        A  
 De la mar 

E            B          A      
 Me estás matando suavemente y 

  c#      A        
 Sin piedad 


 *Coro 

 *Coro 
 

c#               A                B 
 Si quiero vivir  tendré que olvidar 
 

             E   B   E
 Y voy a borrar tu amor 


c#              A               B 
 Si quiero vivir tengo que olvidar 

Y E Y E E  OH

RIFF DE ENTRADA


 *Coro 

NOTA: NO PUSE RITMO NI NADA DE ESO POR QUE ES LA PRIMERA VEZ 
QUE ESCRIBO UNA TABLATURA PERO LOS TONOS SON EXACTOS, SOLO ES COSA 
DE OIRLA BIEN PARA PESCAR EL RITMO.

TRANSCRITO POR BENJAMIN ABRAHAM XUCHITL GONZALEZ 


SI ALGUIEN TIENE TABS DE IILYA KURYAKI O DE ANDRES CALAMARO 
MANDENMELOS NO SEAN OJETES

BURRO_LOCO@LATINMAIL.COM

PEACE BROTHERS!
TE AMO SAYAKA!!!

Fuente original ATAME [www.atame.org]
Colaborador original: ]

Fuente: tusacordes.com