a b c d e f g h i j k l m n o p q r s t u v w x y z 0-9

Clavado En Un Bar

Mana

			
mirando por aqui el otro dia me fije que nadie habia puesto un 
tab del solo ni del resto de la cancion  que estuviera cerca de 
escucharse como la cancion,  donde esta el oido musical de esta gente? 
se ponen a inventar cosas  , ni que poner un capo en el segundo traste,  
el que se haya inventado eso tiene muy buena imaginacion, miren  la 
cancion esta  en SI mayor  y niguna de los tabs para los solo que vi 
sigue las notas de SI mayor    si estas en una banda  improvisate el 
solo  pero si quieres tocarlo  como el de la cancion  pues aqui esta: 

h=hamer on
p=pull off
/=slide up
=slide down
~~=vibrato
^=bend  

como ya dije el solo esta en SI mayor.  el solo empieza lento en la 
posicion 12alrededor del traste 12.  despues hay un lick bien rapido 
ascendente que llega hasta el traste 19, luego un trill hammer pull 
hammer pull  que lleva hacia un lick que se repite, en la posicion 16,  
luego otro lick que se repite en las cuerdas 3 y 4 la unica vez que se 
usa la cuerda 4 y ahi finalizas  en la 3 cuerda bajando el whammy bar  
no es tan dificil como se oye  practicalo

e----------------11~~~~------------11--12--14~~~-12p11--------
B--------12--14-------------12--14-----------------------14~~~-
G--10/11-------------------------------------------------------


                             |aqui empieza la parte rapida
e----------------------------|----------------11h14p11/14-16~~-19-16~
B--11h12----11--11h12--------|-------11h12h14------------------------
G--------13-----------13~~~~-|-11h13---------------------------------

e--16^p14-------------------------------
B---------16p14-16p14h16p14h16p1412----
G------------------------------------13-

e------16------------16------------16-------------------------
B---------19p16---------19p16----------19^p16-----------------
G--18^-----------18^-----------18^-------------18p16-18^~~~---

e--------------------------------------------------------------
B--------------------------------------------------------------
G--16-18-16^13~~~~---16-18p16-16--18p16----16--18p16----16~~--
D----------------------------------------18-----------18-------

e---------------------------------
B--12--14-12/1412----------------
G------------------13~~~~~~------
                              esto es con un whammy bar  si no tienes un W.B. solo tienes que hacer un slide hacia abajo

Fuente original ATAME [www.atame.org]
Colaborador original: ]

Fuente: tusacordes.com