a b c d e f g h i j k l m n o p q r s t u v w x y z 0-9

Cachito

Mana

			
Se utiliza una guitarra de 12 cuerdas. Todos los arreglos más abajo

  arreglo inicial

  Tan solo un adicto, un adicto de tu sol; y es que
C                               F
  arreglo........................................

  con solo un cachito, un pedacito de tu luz
C                         F
  arreglo.................................

  yo llegaría al cielo o me caería al suelo
       C                 Am

  por ti amor, oh no, tan solo
      F           G

  un cachito de tu corazón, ay ay ay eo, soy un adicto de tu corazón
C                         F    G     C                         F
  
  un cachito de tu corazón, ay ay ay eo, soy un adicto de tu corazón
C                         F    G     C                         F
  
  Arreglo inicial

  Pedirle a mi cabeza que deje de pensar en ti
C                                     F
  arreglo...................................

  es casi como pedirle a mi corazón que deje de latir
C                                       F
  arreglo..........................................

  más bien olvida eso, no no repitas eso te pido amor   tan solo
      C                   Am                F         G  

  un cachito de tu corazón, ay ay ay eo, soy un adicto de tu corazón
C                         F    G     C                         F
  
  un cachito de tu corazón, ay ay ay eo, soy un adicto de tu corazón
C                         F    G     C

  Requinto intermedo y flauta


  chiquitita de mi corazón,    chiquitita de mi corazón
C                       F   G C                   F     G
  arreglo final.......................................

chiquitita de mi corazón,    chiquitita de mi corazón
C                       F   G C                   F     G
  arreglo final.......................................

  Trompeta y arreglo final

***********************************Arreglos***********************************

Este arreglo va al inicio y después del primer coro:

E|-------------------------------------|--1--------------------------|
A|-------------------------------------|-----------------------------|
D|--2----2--2----2--2--2--2---2--2--2--|-----------------------------| Dos veces
G|--0----0--0----0--0--0--0---0--0--0--|-----3-----3-----------5--4--|
B|--1----1--1----1--1--1--1---1--1--1--|--------1-----------1--5--3--|
e|--0----1--1----0--0--0--0---0--0--0--|--------------0--1-----------|
   DO M.............................   FA M...............Sol M


Este arreglo se utiliza en todos los versos casi sin variaciones:

    Tan solo un adicto,       un adicto    de  tu sol
E|---------------------------------------|--0-------------------0--------------------
A|---------------------------------------|-------------------------------------------
D|---------------------------------------|-------------------------------------------
G|---------------------------------------|----3-----3--------------3-----3-----------
B|---------------------1-----------------|-------1-----------1--------1-----------1--
e|------------------------0--------------|-------------0--1-----------------0--1-----
   DO M...............................   FA M...................................


Requinto intermedio

E|--------------------------------------------------|-----------------------------
A|--------------------------------------------------|-----------------------------
D|--5--------5-----5-----5--------5--------------9--|-----------------------------
G|-----5--------------------7--------5--7-----7--7--|--5--------5--------5--------
B|--------8-----6-----5--------5-----------5--6-----|-----8--------8--------8-----
e|--------------------------------------------------|--------8--------7--------5--

E|--------------------------------------------------|------|
A|--------------------------------------------------|------|
D|--------------------------------------------------|------|  flauta
G|--5-----------10----------------------------------|--12--|
B|-----6--8--6--10--10--8--8--6--12--10--8--12--10--|--13--|
e|--------------8---8---7--7--5--10--8---7--10--8---|--12--|

E|---------------------------------|------------------------------|
A|---------------------------------|------------------------------|
D|---------------------------------|------------------------------|
G|---------------------------------|------------------------------|
B|--8---8--8--8--8--8--8--8--8--8--|--8---8--8--8--8--8--8--8--8--|
e|--8---8--8--8--8--8--8--8--8--8--|--8---8--8--8--8--8--7--5--7--|


Arreglo final

    Chiquitita    de    mi    corazón....
E|---------------------------------|-------------------------------|
A|---------------------------------|-------------------------------|
D|-----10-----10-----10-----10-----|------10-----10-----10-----10--|
G|--9-------------9-------------9--|--10-------------7-------------|
B|---------8-------------8---------|----------8-------------8------|
e|---------------------------------|-------------------------------|

Para cualquier duda u algún otra tab de maná o de quien sea mail a
mandelbort@hotmail.com

Ramón Zamora

Fuente original ATAME [www.atame.org]
Colaborador original: Ramón Zamora [mandelbort@hotmail.com]

Fuente: tusacordes.com