a b c d e f g h i j k l m n o p q r s t u v w x y z 0-9

Arde El Cielo

Mana

			
INTRO:
               
e.-------------------------------------------
B.-------------------------------------------
G.---6-6-x-x-6-6-6-6-8-8-x-x-4-4-4-----------   x3
D.---6-6-x-x-7-7-7-7-9-9-x-x-6-6-6----------- 
A.---4-4-x-x-7-7-7-7-9-9-x-x-6-6-6-----------
E.---4-4-x-x-5-5-5-5-7-7-x-x-4-4-4-----------

Y la cuarta vez que lo repite hace lo siguiente

e.-------------------------------------------
B.-------------------------------------------
G.---6-6-x-x-6-6-6-6-8-8-x-x-4-4-4-----------
D.---6-6-x-x-7-7-7-7-9-9-x-x-6-6-6-----------
A.---4-4-x-x-7-7-7-7-9-9-x-x-6-6-6-----------
E.---4-4-x-x-5-5-5-5-7-7-x-x-4-4-4-----------

C#m         A         E           B          C#m  A  E  B
nos fue tragando la rutina, fue llenando de vacios
C#m         A         E          B          C#m  A  E  B 
fuimos ahogando la palabra y explotando en puros lios
C#m   A    E      B   F#m        C#m  A  E  B 
te deseo suerte amor, ya me voy al olvido
 e.---9--9---7--7-------9--------5---7----
 B.----9--9---7--7-------10---9---5---7---
 G.-----9--9---9--9-9/11---11--9---6---9--
 D.---------------------------------------
 A.---------------------------------------
 E.---------------------------------------
C#m   A     E    B  F#m       C#m  A  E  B 
solo le pido a dios, darte alivio
 e.---9--9---7--7-------9--------5---7--------12----
 B.----9--9---7--7-------10---9---5---7?10-10---10--
 G.-----9--9---9--9-9/11---11--9---6---9------------
 D.-------------------------------------------------
 A.-------------------------------------------------
 E.-------------------------------------------------

coro: como el intro 

C#m  A  B     G#m        C#m  A   
arde, arde el cielo y el dolor
  B       G#m     C#m       A       B    
arde mi espiritu, arde el amor y la luz
G#m         C#m  A  B     G#m   
arde el cielo amor.


C#m         A          E           B          C#m  A  E  B
salio el halcón salio el demonio, un infierno al manicomio
e.?4------5----------7---------7----
B.---5-----5----------7---------7---
G.----------6----------9---------8?- x2
D.----------------------------------
A.----------------------------------
E.----------------------------------

C#m         A         E           B          C#m  A  E  B
gritos violencia, platos rotos  como ciega la demencia
e.?4------5----------7---------7----
B.---5-----5----------7---------7---
G.----------6----------9---------8?- x2
D.----------------------------------
A.----------------------------------
E.----------------------------------
C#m   A    E      B   F#m        C#m  A  E  B 
solo yo te pido amor, que nunca te abandones
e.---9--9---7--7-------9--------5---7----
B.----9--9---7--7-------10---9---5---7---
G.-----9--9---9--9-9/11---11--9---6---9?
D.---------------------------------------
A.---------------------------------------
E.---------------------------------------
C#m   A    E      B   F#m        C#m  A  E  B 
solo le pido a dios, darte alivio
e.---9--9---7--7-------9--------5---7--------12----
B.----9--9---7--7-------10---9---5---7?10-10---10--
G.-----9--9---9--9-9/11---11--9---6---9------------
D.-------------------------------------------------
A.-------------------------------------------------
E.-------------------------------------------------

coro:
C#m  A  B     G#m        C#m  A   
arde, arde el cielo y el dolor
  B       G#m     C#m       A       B    
arde mi espiritu, arde el amor y la luz
G#m         C#m  A  B     G#m   
arde el cielo amor.
C#m  A  B     G#m        C#m  A   
sangra, sangra el cielo y la luz
B       G#m     C#m       A       B    
sangra mi espiritu, arde el amor y la luz
G#m         C#m  A  B     G#m   
arde el cielo amor

e.-----------------------------------------
B.-----------------------------------------
G.?--------------11-11---------------------
D.-4/6-6-6-9-9-9-11-11-11-11-11-11-11------
A.-4/6-6-6-9-9-9-9--9--11-11-11-11-11------
E.-2/4-4-4-7-7-7-------9--9--9--9--9-------
  
e.-----------------------------------------
B.-----------------------------------------
G.?--------------11-11---------------------
D.-4/6-6-6-9-9-9-11-11-11-11-11-11-11------
A.-4/6-6-6-9-9-9-9--9--11-11-11-11-11------
E.-2/4-4-4-7-7-7-------9--9--9--9--9-------

e.---------------------------------
B.--------------------------------- despues del primer 6 va 
G.?-6--6-6-6-6-6-6-6/7/6-4/6/4----- va aumentando
D.-----------------------------6-4- de 1/2 a 1/4 hasta volver   
A.--------------------------------- al 6 normal  
E.--------------------------------- 

 e.----------4--------
 B--------------------
 G.?-6/4--------------
 D.------6-4----------
 A.-------------------
 E.-------------------

 Esta parte es rápida 

 e.--7-5-4--------------------------
 B.--------7-5---------------------- el ultimo 6 lo hace 
 G.?-----------7-6-4----6-----------  con mucha agresividad
 D.------------------6-4------------
 A.---------------------------------
 E.---------------------------------

C#m  A  B     G#m        C#m  A   
arde, arde el cielo y el dolor
  B       G#m     C#m       A       B    
arde mi espiritu, arde el amor y la luz
G#m         C#m  A  B     G#m   
arde el cielo amor.
C#m  A  B     G#m        C#m  A   
sangra, sangra el cielo y la luz
B       G#m     C#m       A       B    
sangra mi espiritu, arde el amor y la luz
G#m         C#m  A  B     G#m   
arde el cielo amor   B          G#m       C#m
   
   B          G#m       C#m
Trozos del cielo en ardor
e.-------7--------------
B.-----5----5---5-7-5---
G.?--6--6----4---4------
D.----------------------
A.----------------------
E.----------------------
     B          G#m       C#m
  Trozos del cielo en ardor
e.-------7---------4-----
B.-----5----5-4-5-4--4-5-
G.?--6--6----------------
D.-----------------------
A.-----------------------
E------------------------
 
    B                G#m    C#m   A B G#m
  Se esta quemando el cielo ya....
e.-------7-----------------7--------4-----
B.-----5----5---5-7-5---5----5-4-5-4--4-5-
G.?--6--6----4---4----6--6----------------
D.----------------------------------------
A.----------------------------------------
E.----------------------------------------

Fuente: Tusacordes