a b c d e f g h i j k l m n o p q r s t u v w x y z 0-9

Ana

Mana

			
Intro:

||-------------|-------------|---------6-8-|-------------||
||--------6--9-|-------------|---6-6-6-----|-7-7-7--9--6-||
||-7-7-7-------|-9-9-9-------|-------------|-------------||
||-------------|-------------|-------------|-------------||

Verso 1: sin bajo

intro
|-------------|-------------|---------6-8-|--------6----|
|--------6--9-|-------------|---6-6-6-----|-7-7-7-----9-|
|-7-7-7-------|-9-9-9-------|-------------|-------------|
|-------------|-------------|-------------|-------------|

|-------------|-------------|---------6-8-|-------------|
|--------6--9-|-------------|---6-6-6-----|-7-7-7--7--9-|
|-7-7-7-------|-9-9-9-------|-------------|-------------|
|-------------|-------------|-------------|-------------|

verso 2:
|-------------|-------------|-------------|-------------|
|-------------|---------42--|-------------|------4-4-1-1|
|-7-7-7-7-7-7-|-2-2-2-2---42|0-0-0-0-0-0-0|2-2-2--------|
|-------------|-------------|-------------|-------------|

|-------------|-------------|-------------|-------------|
|2-2-2-2-2-2-2|-------------|-------------|-------------|
|-------------|-2-2-2-2-2-22|0-0-0-0-0-0-0|4-4-4-4-2-2-2|
|-------------|-------------|-------------|-------------|

Chorus:
||--------------|-------------|-------------|-------------|
||º2-2-2-2-2-2-2|-------------|-------------|--------4-1-4|
||º-------------|-2-2-2-2-2-2-|0-0-0-0-0-0-0|2-2-2-2------|
||--------------|-------------|-------------|-------------|

|-------------|-------------|-------------|--------------||
|2-2-2-2-2-2-2|-------------|-------------|-------------º||
|-------------|-2-2-2-2-2-2-|4-4-4-4-4-4-4|--5-5-5-5-5-5º||
|-------------|-------------|-------------|--------------||

intro #2
|-------------|-------------|---------6-8-|--------6----|
|--------6--9-|-------------|---6-6-6-----|-7-7-7-----9-|
|-7-7-7-------|-9-9-9-------|-------------|-------------|
|-------------|-------------|-------------|-------------|

|-------------|-------------|---------6-8-|-------------|
|--------6--9-|-------------|---6-6-6-----|-7-7-7--7--9-|
|-7-7-7-------|-9-9-9-------|-------------|-------------|
|-------------|-------------|-------------|-------------|

Verse
Chorus

|-------------|
|-------------|
|-5h7-777-5---|
|-----------7-|

Solo:

|------------------------|------------------------|
|------------------------|------------------------|
|-0-0-----0-0-----7-7----|-0-0----0-0------7-7----|
|------------------------|------------------------|

|------------------------|------------------------|
|------------------------|------------------------|
|-4-4-----4-4-----7-7----|-4-4----4-4-------------|
|------------------------|------------------------|

|------------------------|------------------------|
|------------------------|------------------------|
|-0-0-----0-0-----7-7----|-0-0----0-0------7-7----|
|------------------------|------------------------|

|-----------------|---º-/----|
|-----------------|----/-----|
|-2-2-2-2-2-2-2-2-|---/-º----|
|-----------------|-3-measrs-|

Interlude:
|-----------------|-----------------|-----------------|
|-----------------|-----------------|-----------------|
|-4-4-4-4-4-4-4-4-|-4-4-4-4-4-4-4-4-|-----------------|
|-----------------|-----------------|-5-5-5-5-5-5-5-5-|

|-----------------|-----------------|-----------------|
|-7-7-7-6-6-6-2-6-|-----------------|-----------------|
|-----------------|-7-7-7-7-7-7-7-7-|-7-7-7-7-7-7-7-9-|
|-----------------|-----------------|-----------------|

|-----------------|-----------------|
|-----------------|-----------------|
|-----------------|-9-9-9-9-7-7-7-7-|
|-7-7-7-7-7-7-7-7-|-----------------|

|-----------------|-----------------|-----------------|
|-----------------|-----------------|-----------------|
|-4-4-4-4-4-4-4-4-|-4-4-4-4-4-4-4-4-|-----------------|
|-----------------|-----------------|-5-5-5-5-5-5-5-5-|

|-----------------|-----------------|-----------------|
|-----------------|-----------------|-----------------|
|-----------------|-----------------|-----------------|
|-5-5-5-5-5-5-5-5-|-7-7-7-7-7-7-7-7-|-7-7-7-7-7-7-7-7-|

|-----------------|-----------------|
|-----------------|-----------------|
|-----------------|-----------------|
|-7-7-7-7-7-7-7-7-|-7-7-7-7-7-7-7-7-|

chorus
intro #2

Outro:
|-----------------|-----------------|
|-----------------|-----------------|
|-7-7-7-7-7-7-7-7-|-9-9-9-9-9-9-9-9-|
|-----------------|-----------------|

|-------------------------|-----------------|
|-------------------------|-----------------|
|-11-11-11-11-11-11-11-11-|-0-0-0-0-0-0-0-0-|
|-------------------------|-----------------|

|-----------------|-----------------|
|-----------------|-----------------|
|-7-7-7-7-6-7-6-7-|-9-9-9-9-9-9-9-9-|
|-----------------|-----------------|

|-------------------------|-----------------|
|-------------------------|-----------------|
|-11-11-11-11-11-11-11-11-|-0-0-0-0-0-0-0-0-|
|-------------------------|-----------------|

Fuente original ATAME [www.atame.org]
Colaborador original: Yesid Oliden [elefantasmote@hotmail.com]

Fuente: tusacordes.com