a b c d e f g h i j k l m n o p q r s t u v w x y z 0-9

Amame Hasta Que Me Muera

Mana

			
Mario Arroyo.
Una cancion muy sugestiva de sueños liquidos, como cualquier tab es probable que 
tenga errores, PORFAVOR!  Si encuentran errores me avisan.

Toda la cancion lleva una especia de ritmo flamenco, hay que escucharla para
sentirlo. Ahi les va.

Intro F# ->G  G ->F#

Solo1

e|-7-9-10-9-7--------------------------------------------------|
B|-----------8--------------------6-7-8--7---------------------|
G|------------9--7-9-7--6~--6-7-9-------9--7-9--6-6h7-------6~-|
D|----------------------------------------------------9-8-9----|
A|-------------------------------------------------------------|
E|-------------------------------------------------------------|

 Bm			 A     G                 F#
Ven y empapame de amor, ven y apagame este ardor,
yo quiero ahogarme en ti, en tus muslos naufragar,
amame hasta que mi piel se vuelva amaneceres,
y no sepamos nunca mas, donde esta el cielo o el suelo.

 G    F#     Bm      G    F#         Bm
Dame amor 10 veces, dame amor, hazme el amor
 G    F#     Bm        G                       F#
dame amor 100 veces, dame amor hasta que yo me muera. 

Solo2

e|-------5-5-5-------------------------------9-10-9---------|
B|---5-7-------8-7-5-8-7-5---7-5h7-5--7-8-10--------10-6h7~-|
G|-7-----------------------7--------------------------------|
D|----------------------------------------------------------|
A|----------------------------------------------------------|
E|----------------------------------------------------------|

Quiero derretirme en ti, penetrar hasta tu corazon,
yo quiero sembrarme en ti, sembrarme pa siempre
amemonos hasta embriegar, embriagar el alma,
y no sepamos nunca mas, donde esta el cielo o el suelo.


Arpegeo: G | F# | Em | F# | Bm | A | G |F#

Niña de mi amor1, pierdete en mis mares2,
niña de mi amor3, nada en mis rincones4,
no te puedes ir5, niña de mis sueños6,
no me dejes mas3, quiero ser tu dueño.

     Riff 1		    Riff 2              Riff 3           Riff 4          Riff 5           Riff 6
e--------------|-------------------|7-7-7------------|------------------|-----------|-10-9-7---------------|
B-10-10-8-7-8~-|-8-7------7--------|------10-10-8-8~-|-8-7-----7--------|------7----|--------10-8-7-----7~-|
G--------------|-----9-7----9-7-7~-|-----------------|-----9-7---9-7-7~-|-------7-9~|---------------9-7----|
D--------------|-------------------|-----------------|------------------|-7-7-7-----|----------------------|
A--------------|-------------------|-----------------|------------------|-----------|----------------------|
E--------------|-------------------|-----------------|------------------|-----------|----------------------|
       
Final: G | F# | Em | F#

*El arpegeo y el final es un poco complicado de explicar, toquenlo a su gusto!


Espero que la hayan disfrutado, nada como un buen tab!
Cualquier colaboracion o comentario:
Mario Arroyo Costa Rica
navius@yahoo.com
ICQ 8071498
___    ___ 
||  //||
||-//-||
||  / _||

Otros Tabs:
Mana
Chichi Peralta
Carlos Vives
mas.........

Fuente original ATAME [www.atame.org]
Colaborador original: Mario Arroyo [marioa@racsa.co.cr]

Fuente: tusacordes.com