a b c d e f g h i j k l m n o p q r s t u v w x y z 0-9

Molinos De Viento

Mago De Oz

			
Intro
1|--------------------------------------------------------------|
2|------------------------------------------------------------*-|
3|-5-7--7-7--7-7-7-7--5-7--7-7-7-7-5-5-5-5-5-3-3-3-3-5-5-5-5--*-|
4|--------------------------------------------------------------|

1|--------------------------------------------------------------|
2|------------------------------------------------------------*-|
3|-5-7--7-7--7-7-7-7--5-7--7-7-7-7-5-5-5-5-5-3-3-3-3-5-5-5-5--*-|
4|--------------------------------------------------------------|

0:15 Si acaso tu no vez...
1|--------------------------------------------------------------|
2|------------------------------------------------------------*-|
3|-5-7--7-5--3-3-3-3-5-5-5-5----------------------------------*-|
4|--------------------------------------------------------------|

0:22 Si no puedes hablar...
1|--------------------------------------------------------------|
2|------------------------------------------------------------*-|
3|-5-7--7-5--3-3-3-3-5-5-5-5----------------------------------*-|
4|--------------------------------------------------------------|

0:28 Amigo Sancho escuchame...
1|--------------------------------------------------------------|
2|------------------------------------------------------------*-|
3|-5-7--7-7--7-7-7-7--5-7--7-7-7-7-5-5-5-5-5-3-3-3-3-5-5-5-5--*-|
4|--------------------------------------------------------------|

 Hay un mundo por descubrir...
1|--------------------------------------------------------------|
2|------------------------------------------------------------*-|
3|-5-7--7-7--7-7-7-7--5-7--7-7-7-7-5-5-5-5-5-3-3-3-3-5-5-5-5--*-|
4|--------------------------------------------------------------|

0:42 Aveces siento el despertar...
1|--------------------------------------------------------------|
2|------------------------------------------------------------*-|
3|-7----7-7----5-5----5-5----3-3----3-3-----2----2-2----------*-|
4|--7-7----7-7----5-5----5-5----3-3----3-3---3-3-----3-3--------|

Que el sueño es la realidad...
1|--------------------------------------------------------------|
2|------------------------------------------------------------*-|
3|-7----7-7----5-5----5-5----3-3----3-3-----2----2-2----------*-|
4|--7-7----7-7----5-5----5-5----3-3----3-3---3-3-----3-3--------|

0:56 Bebe Danza Sueña...
1|--------------------------------------------------------------|
2|------------------------------------------------------------*-|
3|-7--7-7-7-5-5-5-5-3-3-3-3-----------------------------------*-|
4|--------------------------------------------------------------|

 Vive escucha...
1|--------------------------------------------------------------|
2|------------------------------------------------------------*-|
3|-7--7-7-7-5-5-5-5-3-3-3-3-----------------------------------*-|
4|--------------------------------------------------------------|

 Siente que la lluvia...
1|--------------------------------------------------------------|
2|------------------------------------------------------------*-|
3|------------5-5-5-5-3-3-3-3---------------------------------*-|
4|-3--3-3-3-3---------------------------------------------------|

Grita con el alma...
1|--------------------------------------------------------------|
2|------------------------------------------------------------*-|
3|------------5-----------------------------------------------*-|
4|-3--3-3-3-3---------------------------------------------------|

1:08 Que de tu vida tu seas amigo el unico actor...
1|--------------------------------------------------------------|
2|-----4-7-5-4------------------------------------------------*-|
3|-5-7--------7-5-4--------5----------------------------------*-|
4|-----------------5-4-3-0--------------------------------------|

1:11
1|--------------------------------------------------------------|
2|------------------------------------------------------------*-|
3|---------------------2--------------------------------------*-|
4|-2-2-2-2--2--2-2-2-2------------------------------------------|


1:13
1|--------------------------------------------------------------|
2|------------------------------------------------------------*-|
3|-7--7-7-7-7-7-5-5-5-5-5--3-3-3-3--5-5-5-5-------------------*-|
4|--------------------------------------------------------------|

1|--------------------------------------------------------------|
2|------------------------------------------------------------*-|
3|-5-7--7-7-7-7-7-7-5-5-5-5-5--3-3-3-3-5-5-5-5----------------*-|
4|--------------------------------------------------------------|

1:28 Si acazo tu opinion...
1|--------------------------------------------------------------|
2|------------------------------------------------------------*-|
3|-5-7--7-5--3-3-3-3-5-5-5-5----------------------------------*-|
4|--------------------------------------------------------------|

1:35 Si puedes definir el odio o el amor amigo que desilucion...
1|--------------------------------------------------------------|
2|------------------------------------------------------------*-|
3|-5-7--7-5--3-3-3-3-5-5-5-5----------------------------------*-|
4|--------------------------------------------------------------|

1:40 No todo es blanco...
1|--------------------------------------------------------------|
2|------------------------------------------------------------*-|
3|-5-7--7-7-7-7-7-7-5-7-7-7-7-5-5-5-5-5--3-3-3-3-5-5-5-5------*-|
4|--------------------------------------------------------------|

1|--------------------------------------------------------------|
2|------------------------------------------------------------*-|
3|-5-7--7-7-7-7-7-7-5-7-7-7-7-5-5-5-5-5--3-3-3-3-5-5-5-5------*-|
4|--------------------------------------------------------------|




1:55 He visto un manantial...
1|--------------------------------------------------------------|
2|------------------------------------------------------------*-|
3|-7----7-7-----5-5---5-5----3-3----3-3----2----2-2-----------*-|
4|--7-7----7-7-----5-5---5-5----3-3----3-3--3-3----3-3----------|

1|--------------------------------------------------------------|
2|------------------------------------------------------------*-|
3|-7----7-7-----5-5---5-5----3-3----3-3----2----2-2-----------*-|
4|--7-7----7-7-----5-5---5-5----3-3----3-3--3-3----3-3----------|

2:08 Bebe Danza Sueña...
1|--------------------------------------------------------------|
2|------------------------------------------------------------*-|
3|-7--7-7-7-5-5-5-5-3-3-3-3-----------------------------------*-|
4|--------------------------------------------------------------|

 Vive escucha...
1|--------------------------------------------------------------|
2|------------------------------------------------------------*-|
3|-7--7-7-7-5-5-5-5-3-3-3-3-----------------------------------*-|
4|--------------------------------------------------------------|

Siente que la lluvia...
1|--------------------------------------------------------------|
2|------------------------------------------------------------*-|
3|-----------5-5-5-5-3-3-3-3----------------------------------*-|
4|-3-3-3-3-3----------------------------------------------------|

Grita con el alma...
1|--------------------------------------------------------------|
2|------------------------------------------------------------*-|
3|-----------5------------------------------------------------*-|
4|-3-3-3-3-3----------------------------------------------------|

2:21 Que de tu vida tu seas amigo el unico actor...
1|--------------------------------------------------------------|
2|-----4-7-5-4------------------------------------------------*-|
3|-5-7--------7-5-4--------5----------------------------------*-|
4|-----------------5-4-3-0--------------------------------------|

2:23 Antes del Requinto
1|--------------------------------------------------------------|
2|------------------------------------------------------------*-|
3|-7-7-7-7-7-7-7-7--7-7-7-7-5-7--7-7-7-7-5-3-3-3-3-2-5-3-3-3-3--|
4|--------------------------------------------------------------|

2:32
1|--------------------------------------------------------------|
2|------------------------------------------------------------*-|
3|-7--5-7--7-5--3-3-5-5---------------------------------------*-|
4|--------------------------------------------------------------|








2:38 Empeza el rekinto
1|--------------------------------------------------------------|
2|------------------------------------------------------------*-|
3|------------------------------------------------------------*-|
4|-3-----0-------3-------0------0-0-3-0-------------------------|

1|--------------------------------------------------------------|
2|------------------------------------------------------------*-|
3|------------------------------------------------------------*-|
4|--------------------------------------------------------------|

2:47 En el rekinto
1|--------------------------------------------------------------|
2|------------------------------------------------------------*-|
3|-5-7--7-7--7-7-7-7--5-7--7-7-7-7-5-5-5-5-5-3-3-3-3-5-5-5-5--*-|
4|--------------------------------------------------------------|

2:54 SOLOO sigue igual
1|--------------------------------------------------------------|
2|------------------------------------------------------------*-|
3|-5-7--7-7--7-7-7-7--5-7--7-7-7-7-5-5-5-5-5-3-3-3-3-5-5-5-5--*-|
4|--------------------------------------------------------------|


1|--------------------------------------------------------------|
2|------------------------------------------------------------*-|
3|-5-7--7-7--7-7-7-7--5-7--7-7-7-7-5-5-5-5-5-3-3-3-3-5-5-5-5--*-|
4|--------------------------------------------------------------|

3:08
1|--------------------------------------------------------------|
2|------------------------------------------------------------*-|
3|-7----7-7-----5-5---5-5----3-3----3-3----2----2-2-----------*-|
4|--7-7----7-7-----5-5---5-5----3-3----3-3--3-3----3-3----------|

3:22 Aveces siento...
1|--------------------------------------------------------------|
2|------------------------------------------------------------*-|
3|-7----7-7-----5-5---5-5----3-3----3-3----2----2-2-----------*-|
4|--7-7----7-7-----5-5---5-5----3-3----3-3--3-3----3-3----------|

3:36 Bebe danza sueña...
1|--------------------------------------------------------------|
2|------------------------------------------------------------*-|
3|-7--7-7-7-5-5-5-5-3-3-3-3-----------------------------------*-|
4|--------------------------------------------------------------|

 Vive escucha...
1|--------------------------------------------------------------|
2|------------------------------------------------------------*-|
3|-7--7-7-7-5-5-5-5-3-3-3-3-----------------------------------*-|
4|--------------------------------------------------------------|

Siente que la lluvia...
1|--------------------------------------------------------------|
2|------------------------------------------------------------*-|
3|-----------5-5-5-5-3-3-3-3----------------------------------*-|
4|-3-3-3-3-3----------------------------------------------------|




Grita con el alma...
1|--------------------------------------------------------------|
2|------------------------------------------------------------*-|
3|-----------5------------------------------------------------*-|
4|-3-3-3-3-3----------------------------------------------------|

3:49 Bebe danza sueña...
1|--------------------------------------------------------------|
2|------------------------------------------------------------*-|
3|-7--7-7-7-5-5-5-5-3-3-3-3-----------------------------------*-|
4|--------------------------------------------------------------|

 Vive escucha...
1|--------------------------------------------------------------|
2|------------------------------------------------------------*-|
3|-7--7-7-7-5-5-5-5-3-3-3-3-----------------------------------*-|
4|--------------------------------------------------------------|

Siente que la lluvia...
1|--------------------------------------------------------------|
2|------------------------------------------------------------*-|
3|-----------5-5-5-5-3-3-3-3----------------------------------*-|
4|-3-3-3-3-3----------------------------------------------------|

Grita con el alma...
1|--------------------------------------------------------------|
2|------------------------------------------------------------*-|
3|-----------5------------------------------------------------*-|
4|-3-3-3-3-3----------------------------------------------------|

4:02 Que de tu vida tu seas amigo el unico actor...
1|--------------------------------------------------------------|
2|-----4-7-5-4------------------------------------------------*-|
3|-5-7--------7-5-4--------5----------------------------------*-|
4|-----------------5-4-3-0--------------------------------------|

4:05
1|--------------------------------------------------------------|
2|------------------------------------------------------------*-|
3|--------------------2---------------------------------------*-|
4|-2-2-2-2-2--2-2-2-2-------------------------------------------|

Fin
1|--------------------------------------------------------------|
2|------------------------------------------------------------*-|
3|-2-0--------------------------------------------------------*-|
4|-----3-0------------------------------------------------------|

Fuente: tusacordes.com