a b c d e f g h i j k l m n o p q r s t u v w x y z 0-9

Todas Las Hojas Son Del Viento (solo)

Luis Alberto Spinetta

			
Solo:


e:--------------------------|----------------------|
B:-15^--15--15--12------12--|--12------------------|
G:------------------14------|------14--12------12--|
D:--------------------------|--------------14------|
A:--------------------------|----------------------|
E:--------------------------|----------------------|
continua:
e:------------------------------------------------|
B:------------------------------------------------|
G:--12------12------12--------------12------------|
D:------14------14------14--12--14------14--12--14|
A:------------------------------------------------|
E:------------------------------------------------|

Fuente: tusacordes.com