a b c d e f g h i j k m n o p q r s t x v w y z 0-9

Cantata De Puentes Amarillos

Luis Alberto Spinetta

			
INTRO

e|------------------------------------------------------------|>
B|------------------------------------------------------------|>
G|------------------------------------------------------------|>
D|------------------------------------------------------------|>
A|---------9h10p9---------9h10p9---------9h10p9-12-11-9-12-11-|>
E|-9-10-12--------9-10-12--------9-10-12----------------------|>

e|------------------------------------------------------------|>
B|------------------------------------------------------------|>
G|------------------------------------------------------------|>
D|---------9h11p9---------9h11p9---------9h11p9-12-11-9-12-11-|>
A|-9-11-12--------9-11-12--------9-11-12----------------------|>
E|------------------------------------------------------------|>

e|-----------------9-----------------9-----------------9------|>
B|------------10-9--------------10-9--------------10-9---10-9-|>
G|-------9-11--------------9-11--------------9-11-------------|>
D|-11-12-------------11-12-------------11-12------------------|>
A|------------------------------------------------------------|>
E|------------------------------------------------------------|>

e|-------------9---------0-----9--9-------------||
B|-----------10--------5-----10---9-------------||
G|-11-9-----11-------6------11---10-------------||
D|------12-12------7-------12----11-------------||
A|---------------0---------------11-------------||
E|--------------------------------9-------------||

          A               D
ah, ah ah ah... ahahah ah ahah 
        E5    D5     C5        B5     Bbsus2
Todo camino puede andar todo puede andar
Bsus29/A
         Con esta sangre alrededor no sé que puedo yo mirar
Finv59b/D                   Finv59b/E   G          Gm
          la sangre ríe idiota como esta canción ¿ante qué? 
   D                      D#/A#   Adin6
Ensucien sus manos como siem----pre
   D                      D#/A#  Asin6  D/F#
Relojes se pudren en sus men----tes      ya 
  D#12 D12  G Am  D#12 D12  G Am D#12 D12  G 
y en   el  mar  nau--fra---gó    u---na   balsa
              C/G C  E7/B  Am  A5 G  D/F#
que nunca zarpó  mar a---quí, mar allá 
Bsus29/A
        En un momento vas a ver que ya es la hora de volver
Finv59b/D                   Finv59b/E   G             Gm
          pero trayendo a casa todo aquél fulgor ¿y para quién?
    D                       D#/A#   Asin6
Las almas repudian todo encie-----rro
      D                   Gminv7/A#
las cruces dejaron de llover 

 F#m                F°      Ginv7  C#                 Dmaj7
sube al taxi, nena los hombres te   miran te quieren tomar
F#m                F°     Ginv7 C#                Dmaj7
ojo el ramo, nena las flores se  caen, tenes que parar
 B9/F#                 E9             Dmaj7
Ví las sonrisas muriendo en el carrousell
 B9/F#                    E9         Dmaj7  E          Dmaj7  C#
Vi tantos monos, nidos, platos de café    platos de café,     ah 

e|--------------7-9-7------------------------|-------------------2----0-|
B|------------6-7-9-7-------------------0----|---0-2-2-2-------2-2----2-|
G|*-6-7-6---4-4-6-7-6---6-7-6-4-----3---3-3-*|-2-2-2-2-1-1---1---2----1-|
D|*-4-4-4-4---6-------4---------7-4-2---2-2-*|-1-1-2-2-2---2-------4--3-|
A|--0-0-0-----5---------------------3-3---3--|-2-2---0-------------5--4-|
E|-------------------------------------------|--------------------------|

  F#m                  F°      Ginv7 C#              Dmaj7
Guarda el hilo, nena guarden bien tus manos esta libertad
 F#m               F°   Ginv7   C#              Dmaj7
ya no poses, nena todo eso es en vano como no dormir 
 B9/F#                 E9           Dmaj7
Aunque me fuercen yo nunca voy a decir
 B9/F#                  E9        Dmaj7 E           Dmaj7
que todo tiempo por pasado fue mejor   mañana es mejor

e|---2----4-----5-5-|
B|-5-2--6-4--8--5-5-|
G|-4-2--5-4--7--5-3-|
D|-3-4--4-6--6--4---|
A|-4-4--5-6--7----4-|
E|---2----4---------|>

Bm  Dº A  Bb  Bm  Dº A  Bb Bm  E  F  F#  Bm  E  F  F#
ahaaahahahhhahaaahah...    ahahaahahhhahahhaah....
Bm    Cmaj7 Am    Fmaj7   Bm  G  F  G
Ah...dom...dom...dom
Bm                G     F          G       Bm   A   Bm   A
Aquellas sombras del camino azul ¿dónde están? 
 Bm                G     F          G       Bm   A   Bm   A
yo las comparo con cipreses que ví sólo en sueños
Bm        G           F         G         Bm   G   F   G
y las muñecas tan sangrantes están de llorar
 A                C/G    C#m        C/G        A    C/G  C#m  C/G
yo te amo tanto que no puedo despertarme sin amar
A                C/G    C#m        C/G        A    C/G  C#m  C/G
y te amo tanto que no puedo despertarme sin amar
A                C/G    C#m        C/G        A    C/G  C#mx3
y te amo tanto que no puedo despertarme sin amar

Bm  Dº A  Bb  Bm  Dº A  Bb Bm  E  F  F#  Bm  E  F  F#
ahaaahahahhhahaaahah...    ahahaahahhhahahhaah....
Bm    Cmaj7 Am    Fmaj7  Bb
Ah...dom...dom...dom

e|------------------8-8/7-5/7-||
B|-6-----5-6-7-8-6-10-6/5-6/8-||
G|-5-5-7-5-5-5-5-5--9-6/5-7/9-||
D|-7-7-7-7--------------------||
A|----------------------------||
E|----------------------------|| X4

  Bm  B5  F#7/C                 Bm  B5  F#7/C
¡No!     nunca la abandones ¡No!      puentes amarillos
  Bm     B5      F#7/C
Mira el pájaro, se muere en su jaula

e|------------------8-8/7-5/7-||
B|-6-----5-6-7-8-6-10-6/5-6/8-||
G|-5-5-7-5-5-5-5-5--9-6/5-7/9-||
D|-7-7-7-7--------------------||
A|----------------------------||
E|----------------------------|| X4

  Bm  B5  F#7/C            Bm        B5          F#7/C
¡No!     nunca la abandones  Puentes amarillos, se muere en su jaula
  Bm     B5      F#7/C
Mira el pájaro, puentes amarillos
 Am7/E  Am7#5/A#         D#9  Bb    Am7     F#   Bb
Hoy                te amo ya,        y ya es mañana

e|------------------8-8/7-5/7-|------------------8-8/7-5/7-|
B|-6-----5-6-7-8-6-10-6/5-6/8-|-6-----5-6-7-8-6-10-6/5-6/8-|
G|-5-5-7-5-5-5-5-5--9-6/5-7/9-|-5-5-7-5-5-5-5-5--9-6/5-7/9-|
D|-7-7-7-7--------------------|-7-7-7-7--------------------|
A|----------------------------|----------------------------|
E|----------------------------|----------------------------|
                           Mañana                       Mañana

e|------------------8-8/7-5/7-|------------------8-8/7-5--7-||
B|-6-----5-6-7-8-6-10-6/5-6/8-|-6-----5-6-7-8-6-10-6/5-6--8-||
G|-5-5-7-5-5-5-5-5--9-6/5-7/9-|-5-5-7-5-5-5-5-5--9-6/5-7--9-||
D|-7-7-7-7--------------------|-7-7-7-7------------------10-||
A|----------------------------|-----------------------------||
E|----------------------------|---------------------------8-||
                           Mañana
<p>Fuente: tusacordes.com</p>