a b c d e f g h i j k l m n o p q r s t u v w x y z 0-9

Tren Al Sur

Los Prisioneros

			
INTRO

   Lam  FA x 4      Lam   FA     Lam   FA
G-|-------------------------------------------------|
D-|-------------------------------------------------|
A-|-----------------0-0--0-------0-0--0-------------|
E-|-------------131-----3-1-1-13-----3-1-1-13-------|


A.

Seis y media en la mañana?

    Lam   FA     Lam   FA
G-|-----------------------------|
D-|-----------------------------|
A-|-0-0--0-------0-0--0---------|
E-|-----3-1-1-13-----3-1-1-13---|    todo el tiempo


C.

Y no me digas?

    SOL         DO Lam Mim FA SOL
G-|----------------------------------------------------|
D-|----------------------------------------------------|
A-|--------------3-30-00-000---------------------------|
E-|-3-3-3-33-333-------------0-01-11-111-3-3-3-33-3333-|


Feliz?

    SOL
G-|------------------------------------------------|
D-|------------------------------------------------|
A-|------------------------------------------------|
E-|-3-3-3-33-3333-3-3-3-33-3333-3-3-3-33-3333------|



INTER  como la intro

como el A.

Doce y media en la mañana?

Y no me digas?

Viajando en este tren, en este tren al sur

    SOL
G-|------------------------------------------------|
D-|------------------------------------------------|
A-|------------------------------------------------|
E-|-3-3-3-33-3333-3-3-3-33-3333-3-3-3-33-3333------|Fuente: Tus acordes