a b c d e f g h i j k l m n o p q r s t u v w x y z 0-9

El Baile De Los Que Sobran

Los Prisioneros

			
Esta es una pequeña adaptacion de el baile de los que sobran en bajo
Es muy facil solo debes encontrar el ritmo

Es otra noche mas      de caminar.....................

G--------------------------------------------------------
D-------------------------------------------------------- 
A--3-3-3-3-3-3-3-------------3-3-3-3-3-3-3---------------
E---------------3-3-3-3-3-3-3-------------1-1-1-1-1-1-1--


Hey conozco unos cuentos    sobre el futuro

G---------------------------------2--------
D--------2------------------2-2------------
A--3-3--------------------------5----------
E------5-----------------------------------

hey, el tiempo en que los aprendi     fue mas seguro

G---------------------------------------------2---
D--------2-----------------------------2-2--------
A--3-3--------------------------------------5-----
E------5------------------------------------------Fuente: Tus acordes