a b c d e f g h i j k l m n o p q r s t u v w x y z 0-9

Yira - Yira

Los Piojos

			
guenas!!! esta es el tabs de bajo para yira yira de los piojos 
no es muy difil solo hay k escucharla esta completa con el sol 
de bajo la saque con la version en vivo de Omar Mollo pero tb 
sirve para la cumun, Espero k la disfruten saludos!!! 
bye!!!! 

G|---------|----------|----------------------------------------------------------------------|
D|-12..-/7-|----------|----------------------------------------------------------------------|
A|---------|5x3/5x|5/7/5x---3x--------3x-------------5x-/1X-8x------8x----5|
E|---------|----------|----------------1x---------1x-/5x-----------------8x------/5--|
               x 3  /

G|----------------------------------------------|
D|----------------------------------------------|
A|5/7/5x---3x--------3x-----------5x---5|
E|----------------1x---------1x-5x----/5--|

ESTRIBILLO

G|--------------------------------------------|
D|--------------------------------------------|
A|-----------------3x--------3x---------5-|
E|8x-6x--1x--------1x-------1x--5---|

G|-----------------------------------------|
D|-----------------------------------------|
A|-----------------3x--------3x--------|
E|8x-6x--1x--------1x-------1x--5|Vuelve intro 


G|---------|----------|----------------------------------------------------------------------|
D|-12..-/7-|----------|----------------------------------------------------------------------|
A|---------|5x3/5x|5/7/5x---3x--------3x-------------5x-/1X-8x------8x----5|
E|---------|----------|----------------1x---------1x-/5x-----------------8x------/5--|
               x 3  /

G|----------------------------------------------|
D|----------------------------------------------|
A|5/7/5x---3x--------3x-----------5x---5|
E|----------------1x---------1x-5x----/5--|


ESTRIBILLO
G|--------------------------------------------|
D|--------------------------------------------|
A|-----------------3x--------3x---------5-|
E|8x-6x--1x--------1x-------1x--5---|

G|-------------------------------------------|
D|-------------------------------------------|
A|-----------------3x--------3x---------5|
E|8x-6x--1x--------1x-------1x--5--|


Solo 

G|------------------7-6-5---------------------------------------------------------------------|
D|-----6h7-7-6--6h7-------6h7-----------------------------------------------------------------|
A|--0-5--------5--------------5-6/8-8-7-5------5-7-8-8-8-777-7-8-888-8/13x--8x--3x/8---5|
E|----------------------------------------8-8-8---------------------------------------------5-|

G|----------------------------------------------|
D|----------------------------------------------|
A|5/7/5x---3x--------3x-----------5x---5|
E|----------------1x---------1x-5x----/5--|

ESTRIBILLO
G|--------------------------------------------|
D|--------------------------------------------|
A|-----------------3x--------3x---------5-|
E|8x-6x--1x--------1x-------1x--5---|

G|--------------------------------------------|
D|--------------------------------------------|
A|-----------------3x--------3x----------5|
E|8x-6x--1x--------1x-------1x1--5--| fin

Fuente original ATAME [www.atame.org]
Colaborador original: Sebastian [sebamun@hotmail.com]

Fuente: tusacordes.com