a b c d e f g h i j k l m n o p q r s t u v w x y z 0-9

Yira - Yira

Los Piojos

			
INTRO sobre Dm
                    x2
e|-------------------|----------------------------------|
B|-13---11---11---10-|-------------8--------8/10--8-6---|
G|-------------------|-5/7--7--5/7---5/7--7-----------7-|
D|----0----0----0----|----------------------------------|
A|-------------------|----------------------------------|
E|-------------------|----------------------------------|

VERSO:
Cuando la suerte...
Cuando rajes los tamangos...

ESTRIBILLO:
Veras que todo es mentira...

INTRO

VERSO:
Cuando esten secas...
Cuando manyés que a tu lao...

ESTRIBILLO

PUENTE
Sobre el final aparece la guitarra de fondo que hace asi:

e|-----------------------------------------------------------|
B|-----------------------------------------------------------|
G|-----------------------------------------------------------|
D|-8-8-8-8-8-8-8---3-3-3-3-3-3-3---10-10-10-10-10-10-10---15-|
A|-8-8-8-8-8-8-8---3-3-3-3-3-3-3---10-10-10-10-10-10-10---15-|
E|-6-6-6-6-6-6-6---1-1-1-1-1-1-1----8--8--8--8--8--8--8---13-|

VERSO:
Cuando rajes los tamangos...

ESTRIBILLO

FIN (A7-Dm)

Fuente original ATAME [www.atame.org]
Colaborador original: Julian Caffarelli [caffarelli_julian@yahoo.com]

Fuente: tusacordes.com