a b c d e f g h i j k l m n o p q r s t u v w x y z 0-9

Yira - Yira

Los Piojos

			
Intro
G|-------|x2
D|-------|
A|-5x7-|
E|-------|

Pre-Verso
G|-------|x2
D|-------|
A|-5x7-|
E|-------|

Verso
G|-------|x3 |-------------|-------------------------|
D|-------|   |-------------|-------------------------|
A|-5x7-|   |-3x5-------|-3x7-------------5x7-|
E|-------|   |-------1x5-|-------1x7-5x7-------|

 |-------------------------|-----||-------------------|
 |-------------------------|-----||-------------------|
 |-1x7-------3x7-------|---5-||-5x7-3x7-------|
 |-------1x7-------1x7-|-5---||-------------1x7-|

 |-------------------------|-----||
 |-------------------------|-----||
 |-3x7-------------5x7-|---5-||
 |-------1x7-5x7-------|-5---||

Coro
G|-------------------------------------------|-----||
D|-------------------------------------------|-----||
A|-3x7-1x7-------3x7-------3x7-------|---5-||
E|-------------1x7-------1x7-------1x7-|-5---||

 |-------------------------------------------|
 |-------------------------------------------|
 |-3x7-1x7-------3x7-------3x7-------|
 |-------------1x7-------1x7-------1x7-|

Intro
G|-------|x2
D|-------|
A|-5x7-|
E|-------|

Pre-Verso
G|-------|x2
D|-------|
A|-5x7-|
E|-------|

Verso
G|-------|x3 |-------------|-------------------------|
D|-------|   |-------------|-------------------------|
A|-5x7-|   |-3x5-------|-3x7-------------5x7-|
E|-------|   |-------1x5-|-------1x7-5x7-------|

 |-------------------------|-----||-------------------|
 |-------------------------|-----||-------------------|
 |-1x7-------3x7-------|---5-||-5x7-3x7-------|
 |-------1x7-------1x7-|-5---||-------------1x7-|

 |-------------------------|-----||
 |-------------------------|-----||
 |-3x7-------------5x7-|---5-||
 |-------1x7-5x7-------|-5---||

Coro
G|-------------------------------------------|-----||
D|-------------------------------------------|-----||
A|-3x7-1x7-------3x7-------3x7-------|---5-||
E|-------------1x7-------1x7-------1x7-|-5---||

 |-------------------------------------------|
 |-------------------------------------------|
 |-3x7-1x7-------3x7-------3x7-------|
 |-------------1x7-------1x7-------1x7-|

Solo
G|------------------------------------|x2
D|------------------------------------|
A|-1/3-3-5-3-----------------5-5-7-5--|
E|-----------1-1-3-1-5-5-7-5----------|

Final del Solo
G|--------------------------|-----||
D|--------------------------|-----||
A|-3x8-------------5x8--|---5-||
E|-------1x8-5x8--------|-5---||

Verso
G|-------------------|-------------------------|-----||
D|-------------------|-------------------------|-----||
A|-5x7-3x7-------|-3x7-------------5x7-|---5-||
E|-------------1x7-|-------1x7-5x7-------|-5---||

Coro
G|-------------------------------------------|-------||
D|-------------------------------------------|-------||
A|-3x7-1x7-------3x7-------3x7-------|---5/x-||
E|-------------1x7-------1x7-------1x7-|-5-----||

 |-------------------------------------------------------||
 |----------------------------------------------------5--||
 |-3x7-1x7-------3x7-------3x7------------5----||
 |-------------1x7-------1x7-------1x7--1--------||

Escuchá la canción para saber el ritmo

Fuente original ATAME [www.atame.org]
Colaborador original: Sebastián Vidondo [rojoamargodelsiglo@yahoo.com.ar]

Fuente: tusacordes.com